  0
SECTION
  2
HEADER
  9
$ACADVER
  1
AC1014
  9
$DWGCODEPAGE
  3
ANSI_1252
  9
$INSBASE
 10
0.0
 20
0.0
 30
0.0
  9
$EXTMIN
 10
1.74954005
 20
-5.72483906
  9
$EXTMAX
 10
1.98645943
 20
-5.42783906
  9
$LIMMIN
 10
1.74954005
 20
-5.72483906
  9
$LIMMAX
 10
1.98645943
 20
-5.42783906
  9
$ORTHOMODE
 70
     0
  9
$REGENMODE
 70
     1
  9
$FILLMODE
 70
     1
  9
$QTEXTMODE
 70
     0
  9
$MIRRTEXT
 70
     1
  9
$DRAGMODE
 70
     2
  9
$LTSCALE
 40
0.001
  9
$OSMODE
 70
     0
  9
$ATTMODE
 70
     1
  9
$TEXTSIZE
 40
3.5
  9
$TRACEWID
 40
1.0
  9
$TEXTSTYLE
  7
STANDARD
  9
$CLAYER
  8
0
  9
$CELTYPE
  6
BYLAYER
  9
$CECOLOR
 62
   256
  9
$DIMSCALE
 40
1.0
  9
$DIMASZ
 40
4.0
  9
$DIMEXO
 40
5.0
  9
$DIMDLI
 40
10.0
  9
$DIMRND
 40
0.0
  9
$DIMDLE
 40
2.0
  9
$DIMEXE
 40
2.0
  9
$DIMTP
 40
0.0
  9
$DIMTM
 40
0.0
  9
$DIMTXT
 40
1.6
  9
$DIMCEN
 40
1.5
  9
$DIMTSZ
 40
0.0
  9
$DIMTOL
 70
     0
  9
$DIMLIM
 70
     0
  9
$DIMTIH
 70
     1
  9
$DIMTOH
 70
     0
  9
$DIMSE1
 70
     0
  9
$DIMSE2
 70
     0
  9
$DIMTAD
 70
     1
  9
$DIMZIN
 70
     8
  9
$DIMBLK
  1

  9
$DIMASO
 70
     1
  9
$DIMSHO
 70
     1
  9
$DIMPOST
  1

  9
$DIMAPOST
  1

  9
$DIMALT
 70
     0
  9
$DIMALTD
 70
     2
  9
$DIMALTF
 40
25.4
  9
$DIMLFAC
 40
1.0
  9
$DIMTOFL
 70
     0
  9
$DIMTVP
 40
0.0
  9
$DIMTIX
 70
     0
  9
$DIMSOXD
 70
     0
  9
$DIMSAH
 70
     0
  9
$DIMBLK1
  1

  9
$DIMBLK2
  1

  9
$DIMSTYLE
  2
*UNNAMED
  9
$DIMCLRD
 70
     9
  9
$DIMCLRE
 70
     9
  9
$DIMCLRT
 70
     4
  9
$DIMTFAC
 40
1.0
  9
$DIMGAP
 40
0.09
  9
$DIMUNIT
 70
     2
  9
$LUNITS
 70
     2
  9
$LUPREC
 70
     6
  9
$AXISMODE
 70
     0
  9
$AXISUNIT
 10
0.0
 20
0.0
  9
$SKETCHINC
 40
0.1
  9
$FILLETRAD
 40
0.0
  9
$AUNITS
 70
     0
  9
$AUPREC
 70
     0
  9
$MENU
  1
ACAD
  9
$ELEVATION
 40
0.0
  9
$PELEVATION
 40
0.0
  9
$THICKNESS
 40
0.0
  9
$LIMCHECK
 70
     0
  9
$BLIPMODE
 70
     1
  9
$CHAMFERA
 40
0.0
  9
$CHAMFERB
 40
0.0
  9
$SKPOLY
 70
     1
  9
$TDCREATE
 40
2456705.0000000000
  9
$TDUPDATE
 40
2456705.0000000000
  9
$TDINDWG
 40
0.0
  9
$TDUSRTIMER
 40
0.0
  9
$USRTIMER
 70
     1
  9
$ANGBASE
 50
0.0
  9
$ANGDIR
 70
     0
  9
$PDMODE
 70
     0
  9
$PDSIZE
 40
0.0
  9
$PLINEWID
 40
0.0
  9
$COORDS
 70
     2
  9
$SPLFRAME
 70
     0
  9
$SPLINETYPE
 70
     6
  9
$SPLINESEGS
 70
     8
  9
$ATTDIA
 70
     1
  9
$ATTREQ
 70
     1
  9
$HANDLING
 70
     1
  9
$HANDSEED
  5
     5DE
  9
$SURFTAB1
 70
     6
  9
$SURFTAB2
 70
     6
  9
$SURFTYPE
 70
     6
  9
$SURFU
 70
     6
  9
$SURFV
 70
     6
  9
$UCSNAME
  2

  9
$UCSORG
 10
0.0
 20
0.0
 30
0.0
  9
$UCSXDIR
 10
1.0
 20
0.0
 30
0.0
  9
$UCSYDIR
 10
0.0
 20
1.0
 30
0.0
  9
$PUCSNAME
  2

  9
$PUCSORG
 10
0.0
 20
0.0
 30
0.0
  9
$PUCSXDIR
 10
1.0
 20
0.0
 30
0.0
  9
$PUCSYDIR
 10
0.0
 20
1.0
 30
0.0
  9
$USERI1
 70
     0
  9
$USERI2
 70
     0
  9
$USERI3
 70
     0
  9
$USERI4
 70
     0
  9
$USERI5
 70
     0
  9
$USERR1
 40
0.0
  9
$USERR2
 40
0.0
  9
$USERR3
 40
0.0
  9
$USERR4
 40
0.0
  9
$USERR5
 40
0.0
  9
$WORLDVIEW
 70
     1
  9
$SHADEDGE
 70
     3
  9
$SHADEDIF
 70
    70
  9
$TILEMODE
 70
     1
  9
$MAXACTVP
 70
    16
  9
$PINSBASE
 10
0.0
 20
0.0
 30
0.0
  9
$PLIMCHECK
 70
     0
  9
$PEXTMIN
 10
1.0000000000000E+20
 20
1.0000000000000E+20
 30
1.0000000000000E+20
  9
$PEXTMAX
 10
-1.0000000000000E+20
 20
-1.0000000000000E+20
 30
-1.0000000000000E+20
  9
$PLIMMIN
 10
0.0
 20
0.0
  9
$UNITMODE
 70
     0
  9
$VISRETAIN
 70
     0
  9
$MEASUREMENT
 70
     1
  0
ENDSEC
  0
SECTION
  2
TABLES
  0
TABLE
  2
VPORT
  5
38
100
AcDbSymbolTable
 70
     1
  0
ENDTAB
  0
TABLE
  2
STYLE
  5
39
100
AcDbSymbolTable
 70
     4
  0
STYLE
  5
3A
100
AcDbSymbolTableRecord
100
AcDbTextStyleTableRecord
  2
STANDARD
 70
     0
 40
0.0
 41
1.0
 50
0.0
 71
     0
 42
3.5
  3
MONOTXT
  4

  0
STYLE
  5
3B
100
AcDbSymbolTableRecord
100
AcDbTextStyleTableRecord
  2
CADWORK1
 70
     0
 40
0.0
 41
1.0
 50
0.0
 71
     0
 42
3.5
  3
MONOTXT
  4

  0
STYLE
  5
3C
100
AcDbSymbolTableRecord
100
AcDbTextStyleTableRecord
  2
MONOTXT
 70
     0
 40
0.0
 41
1.0
 50
0.0
 71
     0
 42
3.5
  3
MONOTXT
  4

  0
STYLE
  5
3D
100
AcDbSymbolTableRecord
100
AcDbTextStyleTableRecord
  2
FRUTIGER_55_ROMAN
 70
     0
 40
0.0
 41
1.0
 50
0.0
 71
     0
 42
3.5
  3

  4

1001
ACAD
1000
Frutiger 55 Roman
1071
        0
  0
STYLE
  5
3E
100
AcDbSymbolTableRecord
100
AcDbTextStyleTableRecord
  2
ARIAL
 70
     0
 40
0.0
 41
1.0
 50
0.0
 71
     0
 42
3.5
  3

  4

1001
ACAD
1000
Arial
1071
        0
  0
ENDTAB
  0
TABLE
  2
LTYPE
  5
3F
100
AcDbSymbolTable
 70
    14
  0
LTYPE
  5
40
100
AcDbSymbolTableRecord
100
AcDbLinetypeTableRecord
  2
BYBLOCK
 70
    64
  3

 72
    65
 73
     0
 40
0.0
  0
LTYPE
  5
41
100
AcDbSymbolTableRecord
100
AcDbLinetypeTableRecord
  2
BYLAYER
 70
    64
  3

 72
    65
 73
     0
 40
0.0
  0
LTYPE
  5
42
100
AcDbSymbolTableRecord
100
AcDbLinetypeTableRecord
  2
CONTINUOUS
 70
    64
  3
Solid line
 72
    65
 73
     0
 40
0.0
  0
LTYPE
  5
43
100
AcDbSymbolTableRecord
100
AcDbLinetypeTableRecord
  2
HIDDEN
 70
    64
  3
__ __ __ __ __ __ __ __ __ __ __ __ __ __ __ __
 72
    65
 73
     2
 40
1.875
 49
1.25
 74
     0
 49
-0.625
 74
     0
  0
LTYPE
  5
44
100
AcDbSymbolTableRecord
100
AcDbLinetypeTableRecord
  2
DASHDOT
 70
    64
  3
 __ . __ . __ . __ . __ . __ . __ . __ . __ . __
 72
    65
 73
     4
 40
10.0
 49
5.0
 74
     0
 49
-2.5
 74
     0
 49
0.0
 74
     0
 49
-2.5
 74
     0
  0
LTYPE
  5
45
100
AcDbSymbolTableRecord
100
AcDbLinetypeTableRecord
  2
CENTER
 70
    64
  3
 ____ _ ____ _ ____ _ ____ _ ____ _ ____ _ ____
 72
    65
 73
     4
 40
20.0
 49
12.5
 74
     0
 49
-2.5
 74
     0
 49
2.5
 74
     0
 49
-2.5
 74
     0
  0
LTYPE
  5
46
100
AcDbSymbolTableRecord
100
AcDbLinetypeTableRecord
  2
CADWORK_LK1
 70
    64
  3
User defined cadwork LK1
 72
    65
 73
     2
 40
1.25
 49
0.5
 74
     0
 49
-0.75
 74
     0
  0
LTYPE
  5
47
100
AcDbSymbolTableRecord
100
AcDbLinetypeTableRecord
  2
CADWORK_AC4
 70
    64
  3
User defined cadwork AC4
 72
    65
 73
     2
 40
10.0
 49
50.0
 74
     0
 49
40.0
 74
     0
  0
LTYPE
  5
48
100
AcDbSymbolTableRecord
100
AcDbLinetypeTableRecord
  2
DAL
 70
    64
  3
Solid line (for MAPS)
 72
    65
 73
     0
 40
0.0
  0
LTYPE
  5
49
100
AcDbSymbolTableRecord
100
AcDbLinetypeTableRecord
  2
MUR
 70
    64
  3
Solid line (for MAPS)
 72
    65
 73
     0
 40
0.0
  0
LTYPE
  5
4A
100
AcDbSymbolTableRecord
100
AcDbLinetypeTableRecord
  2
SOM
 70
    64
  3
Solid line (for MAPS)
 72
    65
 73
     0
 40
0.0
  0
LTYPE
  5
4B
100
AcDbSymbolTableRecord
100
AcDbLinetypeTableRecord
  2
COL
 70
    64
  3
Solid line (for MAPS)
 72
    65
 73
     0
 40
0.0
  0
LTYPE
  5
4C
100
AcDbSymbolTableRecord
100
AcDbLinetypeTableRecord
  2
LGN
 70
    64
  3
Solid line (for MAPS)
 72
    65
 73
     0
 40
0.0
  0
LTYPE
  5
4D
100
AcDbSymbolTableRecord
100
AcDbLinetypeTableRecord
  2
PNT
 70
    64
  3
Solid line (for MAPS)
 72
    65
 73
     0
 40
0.0
  0
ENDTAB
  0
TABLE
  2
LAYER
  5
4E
100
AcDbSymbolTable
 70
    44
  0
LAYER
  5
4F
100
AcDbSymbolTableRecord
100
AcDbLayerTableRecord
  2
leer
 70
     0
 62
     7
  6
CONTINUOUS
370
    -3
  0
LAYER
  5
50
100
AcDbSymbolTableRecord
100
AcDbLayerTableRecord
  2
eg
 70
     0
 62
     7
  6
CONTINUOUS
370
     5
  0
LAYER
  5
51
100
AcDbSymbolTableRecord
100
AcDbLayerTableRecord
  2
detail
 70
     0
 62
     7
  6
CONTINUOUS
370
     5
  0
LAYER
  5
52
100
AcDbSymbolTableRecord
100
AcDbLayerTableRecord
  2
detail
 70
     0
 62
     7
  6
CONTINUOUS
370
     5
  0
LAYER
  5
53
100
AcDbSymbolTableRecord
100
AcDbLayerTableRecord
  2
ug-kanalisation
 70
     0
 62
     7
  6
CONTINUOUS
370
    18
  0
LAYER
  5
54
100
AcDbSymbolTableRecord
100
AcDbLayerTableRecord
  2
Layer_6
 70
     0
 62
     7
  6
CONTINUOUS
370
    -3
  0
LAYER
  5
55
100
AcDbSymbolTableRecord
100
AcDbLayerTableRecord
  2
projekt
 70
     0
 62
     7
  6
CONTINUOUS
370
    -3
  0
LAYER
  5
56
100
AcDbSymbolTableRecord
100
AcDbLayerTableRecord
  2
projekt
 70
     0
 62
     7
  6
CONTINUOUS
370
    -3
  0
LAYER
  5
57
100
AcDbSymbolTableRecord
100
AcDbLayerTableRecord
  2
projekt
 70
     0
 62
     7
  6
CONTINUOUS
370
    -3
  0
LAYER
  5
58
100
AcDbSymbolTableRecord
100
AcDbLayerTableRecord
  2
EG
 70
     0
 62
     7
  6
CONTINUOUS
370
     5
  0
LAYER
  5
59
100
AcDbSymbolTableRecord
100
AcDbLayerTableRecord
  2
TEAM-DET1
 70
     0
 62
     5
  6
CONTINUOUS
370
    25
  0
LAYER
  5
5A
100
AcDbSymbolTableRecord
100
AcDbLayerTableRecord
  2
TEAM-BODY
 70
     0
 62
     5
  6
CONTINUOUS
370
    25
  0
LAYER
  5
5B
100
AcDbSymbolTableRecord
100
AcDbLayerTableRecord
  2
TEAM-INSP
 70
     0
 62
     5
  6
CONTINUOUS
370
    25
  0
LAYER
  5
5C
100
AcDbSymbolTableRecord
100
AcDbLayerTableRecord
  2
S_Einrichtung
 70
     0
 62
     5
  6
CONTINUOUS
370
    25
  0
LAYER
  5
5D
100
AcDbSymbolTableRecord
100
AcDbLayerTableRecord
  2
Layer_15
 70
     0
 62
     7
  6
CONTINUOUS
370
     5
  0
LAYER
  5
5E
100
AcDbSymbolTableRecord
100
AcDbLayerTableRecord
  2
schnitt
 70
     0
 62
     7
  6
CONTINUOUS
370
     5
  0
LAYER
  5
5F
100
AcDbSymbolTableRecord
100
AcDbLayerTableRecord
  2
Layer_3
 70
     0
 62
     7
  6
CONTINUOUS
370
     5
  0
LAYER
  5
60
100
AcDbSymbolTableRecord
100
AcDbLayerTableRecord
  2
0
 70
     0
 62
     7
  6
CONTINUOUS
370
    -3
  0
LAYER
  5
61
100
AcDbSymbolTableRecord
100
AcDbLayerTableRecord
  2
Schraffur
 70
     0
 62
     8
  6
CONTINUOUS
370
    -3
  0
LAYER
  5
62
100
AcDbSymbolTableRecord
100
AcDbLayerTableRecord
  2
Umriss02
 70
     0
 62
     1
  6
CONTINUOUS
370
    -3
  0
LAYER
  5
63
100
AcDbSymbolTableRecord
100
AcDbLayerTableRecord
  2
Umriss05
 70
     0
 62
     3
  6
CONTINUOUS
370
    -3
  0
LAYER
  5
64
100
AcDbSymbolTableRecord
100
AcDbLayerTableRecord
  2
Achse
 70
     0
 62
   104
  6
DASHDOT
370
    -3
  0
LAYER
  5
65
100
AcDbSymbolTableRecord
100
AcDbLayerTableRecord
  2
Averdeckt
 70
     0
 62
   130
  6
CADWORK_AC4
370
    -3
  0
LAYER
  5
66
100
AcDbSymbolTableRecord
100
AcDbLayerTableRecord
  2
Glas
 70
     0
 62
     4
  6
CONTINUOUS
370
    -3
  0
LAYER
  5
67
100
AcDbSymbolTableRecord
100
AcDbLayerTableRecord
  2
ACHSEN
 70
     0
 62
     7
  6
CONTINUOUS
370
    -3
  0
LAYER
  5
68
100
AcDbSymbolTableRecord
100
AcDbLayerTableRecord
  2
SCHNITTLINIE
 70
     0
 62
     5
  6
CONTINUOUS
370
    -3
  0
LAYER
  5
69
100
AcDbSymbolTableRecord
100
AcDbLayerTableRecord
  2
SCHRAFFUREN
 70
     0
 62
     7
  6
CONTINUOUS
370
    -3
  0
LAYER
  5
6A
100
AcDbSymbolTableRecord
100
AcDbLayerTableRecord
  2
TEXTE
 70
     0
 62
     7
  6
CONTINUOUS
370
    -3
  0
LAYER
  5
6B
100
AcDbSymbolTableRecord
100
AcDbLayerTableRecord
  2
SCHRAFFUR
 70
     0
 62
     3
  6
CONTINUOUS
370
    -3
  0
LAYER
  5
6C
100
AcDbSymbolTableRecord
100
AcDbLayerTableRecord
  2
ISOLATION
 70
     0
 62
     3
  6
CONTINUOUS
370
    -3
  0
LAYER
  5
6D
100
AcDbSymbolTableRecord
100
AcDbLayerTableRecord
  2
GLAS
 70
     0
 62
     3
  6
CONTINUOUS
370
    -3
  0
LAYER
  5
6E
100
AcDbSymbolTableRecord
100
AcDbLayerTableRecord
  2
ISOLIERGLAS
 70
     0
 62
     4
  6
CONTINUOUS
370
    -3
  0
LAYER
  5
6F
100
AcDbSymbolTableRecord
100
AcDbLayerTableRecord
  2
DOTS
 70
     0
 62
     2
  6
CONTINUOUS
370
    -3
  0
LAYER
  5
70
100
AcDbSymbolTableRecord
100
AcDbLayerTableRecord
  2
GLASLEISTE
 70
     0
 62
     7
  6
CONTINUOUS
370
    -3
  0
LAYER
  5
71
100
AcDbSymbolTableRecord
100
AcDbLayerTableRecord
  2
WEICHLIPPE
 70
     0
 62
     3
  6
CONTINUOUS
370
    -3
  0
LAYER
  5
72
100
AcDbSymbolTableRecord
100
AcDbLayerTableRecord
  2
GLASFALZEINLAGE
 70
     0
 62
     4
  6
CONTINUOUS
370
    -3
  0
LAYER
  5
73
100
AcDbSymbolTableRecord
100
AcDbLayerTableRecord
  2
FESTVERGLASUNGSDICHTUNG
 70
     0
 62
     3
  6
CONTINUOUS
370
    -3
  0
LAYER
  5
74
100
AcDbSymbolTableRecord
100
AcDbLayerTableRecord
  2
VERKLOTZUNG30
 70
     0
 62
     4
  6
CONTINUOUS
370
    -3
  0
LAYER
  5
75
100
AcDbSymbolTableRecord
100
AcDbLayerTableRecord
  2
RAHMENPROFIL
 70
     0
 62
     7
  6
CONTINUOUS
370
    -3
  0
LAYER
  5
76
100
AcDbSymbolTableRecord
100
AcDbLayerTableRecord
  2
RAHMENVERSTÄRKUNG
 70
     0
 62
     4
  6
CONTINUOUS
370
    -3
  0
LAYER
  5
77
100
AcDbSymbolTableRecord
100
AcDbLayerTableRecord
  2
lANDFLÄCHEN
 70
     0
 62
     7
  6
CONTINUOUS
370
    18
  0
LAYER
  5
78
100
AcDbSymbolTableRecord
100
AcDbLayerTableRecord
  2
Layer_42
 70
     0
 62
     7
  6
CONTINUOUS
370
     5
  0
LAYER
  5
79
100
AcDbSymbolTableRecord
100
AcDbLayerTableRecord
  2
Layer_43
 70
     0
 62
     7
  6
CONTINUOUS
370
     5
  0
LAYER
  5
7A
100
AcDbSymbolTableRecord
100
AcDbLayerTableRecord
  2
Layer_44
 70
     0
 62
     7
  6
CONTINUOUS
370
     5
  0
ENDTAB
  0
TABLE
  2
VIEW
  5
7B
100
AcDbSymbolTable
 70
     0
  0
ENDTAB
  0
TABLE
  2
UCS
  5
7C
100
AcDbSymbolTable
 70
     0
  0
ENDTAB
  0
TABLE
  2
APPID
  5
7D
100
AcDbSymbolTable
 70
     1
  0
APPID
  5
7E
100
AcDbSymbolTableRecord
100
AcDbRegAppTableRecord
  2
ACAD
 70
     0
  0
ENDTAB
  0
TABLE
  2
DIMSTYLE
  5
7F
100
AcDbSymbolTable
 70
     0
  0
ENDTAB
  0
TABLE
  2
BLOCK_RECORD
  5
80
100
AcDbSymbolTable
 70
     0
  0
BLOCK_RECORD
  5
81
100
AcDbSymbolTableRecord
100
AcDbBlockTableRecord
  2
*MODEL_SPACE
  0
BLOCK_RECORD
  5
82
100
AcDbSymbolTableRecord
100
AcDbBlockTableRecord
  2
*PAPER_SPACE
  0
BLOCK_RECORD
  5
83
100
AcDbSymbolTableRecord
100
AcDbBlockTableRecord
  2
CDWK_EXTR_0
  0
BLOCK_RECORD
  5
84
100
AcDbSymbolTableRecord
100
AcDbBlockTableRecord
  2
CDWK_EXTR_1D
  0
BLOCK_RECORD
  5
85
100
AcDbSymbolTableRecord
100
AcDbBlockTableRecord
  2
CDWK_EXTR_1G
  0
BLOCK_RECORD
  5
86
100
AcDbSymbolTableRecord
100
AcDbBlockTableRecord
  2
CDWK_EXTR_2
  0
BLOCK_RECORD
  5
87
100
AcDbSymbolTableRecord
100
AcDbBlockTableRecord
  2
CDWK_EXTR_3
  0
BLOCK_RECORD
  5
88
100
AcDbSymbolTableRecord
100
AcDbBlockTableRecord
  2
CDWK_EXTR_4
  0
BLOCK_RECORD
  5
89
100
AcDbSymbolTableRecord
100
AcDbBlockTableRecord
  2
CDWK_PTTYP0
  0
BLOCK_RECORD
  5
8A
100
AcDbSymbolTableRecord
100
AcDbBlockTableRecord
  2
*X1
  0
BLOCK_RECORD
  5
8B
100
AcDbSymbolTableRecord
100
AcDbBlockTableRecord
  2
*X2
  0
BLOCK_RECORD
  5
8C
100
AcDbSymbolTableRecord
100
AcDbBlockTableRecord
  2
*X3
  0
BLOCK_RECORD
  5
8D
100
AcDbSymbolTableRecord
100
AcDbBlockTableRecord
  2
*X4
  0
BLOCK_RECORD
  5
8E
100
AcDbSymbolTableRecord
100
AcDbBlockTableRecord
  2
*X5
  0
BLOCK_RECORD
  5
8F
100
AcDbSymbolTableRecord
100
AcDbBlockTableRecord
  2
*X6
  0
BLOCK_RECORD
  5
90
100
AcDbSymbolTableRecord
100
AcDbBlockTableRecord
  2
*X7
  0
BLOCK_RECORD
  5
91
100
AcDbSymbolTableRecord
100
AcDbBlockTableRecord
  2
*X8
  0
BLOCK_RECORD
  5
92
100
AcDbSymbolTableRecord
100
AcDbBlockTableRecord
  2
*X9
  0
BLOCK_RECORD
  5
93
100
AcDbSymbolTableRecord
100
AcDbBlockTableRecord
  2
*X10
  0
BLOCK_RECORD
  5
94
100
AcDbSymbolTableRecord
100
AcDbBlockTableRecord
  2
*X11
  0
BLOCK_RECORD
  5
95
100
AcDbSymbolTableRecord
100
AcDbBlockTableRecord
  2
*X12
  0
BLOCK_RECORD
  5
96
100
AcDbSymbolTableRecord
100
AcDbBlockTableRecord
  2
*D1
  0
BLOCK_RECORD
  5
97
100
AcDbSymbolTableRecord
100
AcDbBlockTableRecord
  2
*D2
  0
BLOCK_RECORD
  5
98
100
AcDbSymbolTableRecord
100
AcDbBlockTableRecord
  2
*D3
  0
BLOCK_RECORD
  5
99
100
AcDbSymbolTableRecord
100
AcDbBlockTableRecord
  2
*D4
  0
BLOCK_RECORD
  5
9A
100
AcDbSymbolTableRecord
100
AcDbBlockTableRecord
  2
*D5
  0
BLOCK_RECORD
  5
9B
100
AcDbSymbolTableRecord
100
AcDbBlockTableRecord
  2
*D6
  0
BLOCK_RECORD
  5
9C
100
AcDbSymbolTableRecord
100
AcDbBlockTableRecord
  2
*D7
  0
BLOCK_RECORD
  5
9D
100
AcDbSymbolTableRecord
100
AcDbBlockTableRecord
  2
*D8
  0
BLOCK_RECORD
  5
9E
100
AcDbSymbolTableRecord
100
AcDbBlockTableRecord
  2
*D9
  0
BLOCK_RECORD
  5
9F
100
AcDbSymbolTableRecord
100
AcDbBlockTableRecord
  2
*D10
  0
ENDTAB
  0
ENDSEC
  0
SECTION
  2
BLOCKS
  0
BLOCK
  5
A0
100
AcDbEntity
  8
0
100
AcDbBlockBegin
  2
*MODEL_SPACE
 70
     0
 10
0.0
 20
0.0
 30
0.0
  3
*MODEL_SPACE
  1

  0
ENDBLK
  5
A1
100
AcDbEntity
100
AcDbBlockEnd
  0
BLOCK
  5
A2
100
AcDbEntity
  8
0
100
AcDbBlockBegin
  2
*PAPER_SPACE
 70
     0
 10
0.0
 20
0.0
 30
0.0
  3
*PAPER_SPACE
  1

  0
ENDBLK
  5
A3
100
AcDbEntity
100
AcDbBlockEnd
  0
BLOCK
  5
A4
100
AcDbEntity
  8
0
100
AcDbBlockBegin
  2
CDWK_EXTR_0
 70
     0
 10
0.0
 20
0.0
 30
0.0
  3
CDWK_EXTR_0
  1

  4
Cadwork line-extremity
  0
LINE
  5
A5
100
AcDbEntity
  8
0
 62
     0
370
    -2
100
AcDbLine
 10
0.0
 20
0.0
 30
0.0
 11
2.0
 21
0.5
 31
0.0
  0
LINE
  5
A6
100
AcDbEntity
  8
0
 62
     0
370
    -2
100
AcDbLine
 10
0.0
 20
0.0
 30
0.0
 11
2.0
 21
-0.5
 31
0.0
  0
LINE
  5
A7
100
AcDbEntity
  8
0
 62
     0
370
    -2
100
AcDbLine
 10
2.0
 20
0.5
 30
0.0
 11
2.0
 21
-0.5
 31
0.0
  0
ENDBLK
  5
A8
100
AcDbEntity
100
AcDbBlockEnd
  0
BLOCK
  5
A9
100
AcDbEntity
  8
0
100
AcDbBlockBegin
  2
CDWK_EXTR_1D
 70
     0
 10
0.0
 20
0.0
 30
0.0
  3
CDWK_EXTR_1D
  1

  4
Cadwork line-extremity
  0
LINE
  5
AA
100
AcDbEntity
  8
0
 62
     0
370
    -2
100
AcDbLine
 10
0.0
 20
0.0
 30
0.0
 11
0.0
 21
1.0
 31
0.0
  0
LINE
  5
AB
100
AcDbEntity
  8
0
 62
     0
370
    -2
100
AcDbLine
 10
0.0
 20
1.0
 30
0.0
 11
0.5
 21
1.5
 31
0.0
  0
LINE
  5
AC
100
AcDbEntity
  8
0
 62
     0
370
    -2
100
AcDbLine
 10
0.5
 20
1.5
 30
0.0
 11
1.5
 21
1.5
 31
0.0
  0
ENDBLK
  5
AD
100
AcDbEntity
100
AcDbBlockEnd
  0
BLOCK
  5
AE
100
AcDbEntity
  8
0
100
AcDbBlockBegin
  2
CDWK_EXTR_1G
 70
     0
 10
0.0
 20
0.0
 30
0.0
  3
CDWK_EXTR_1G
  1

  4
Cadwork line-extremity
  0
LINE
  5
AF
100
AcDbEntity
  8
0
 62
     0
370
    -2
100
AcDbLine
 10
0.0
 20
0.0
 30
0.0
 11
0.0
 21
-1.0
 31
0.0
  0
LINE
  5
B0
100
AcDbEntity
  8
0
 62
     0
370
    -2
100
AcDbLine
 10
0.0
 20
-1.0
 30
0.0
 11
0.5
 21
-1.5
 31
0.0
  0
LINE
  5
B1
100
AcDbEntity
  8
0
 62
     0
370
    -2
100
AcDbLine
 10
0.5
 20
-1.5
 30
0.0
 11
1.5
 21
-1.5
 31
0.0
  0
ENDBLK
  5
B2
100
AcDbEntity
100
AcDbBlockEnd
  0
BLOCK
  5
B3
100
AcDbEntity
  8
0
100
AcDbBlockBegin
  2
CDWK_EXTR_2
 70
     0
 10
0.0
 20
0.0
 30
0.0
  3
CDWK_EXTR_2
  1

  4
Cadwork line-extremity
  0
SOLID
  5
B4
100
AcDbEntity
  8
0
 62
     0
100
AcDbTrace
 10
0.0
 20
0.0
 11
2.0
 21
0.5
 12
2.0
 22
-0.5
 13
2.0
 23
-0.5
  0
ENDBLK
  5
B5
100
AcDbEntity
100
AcDbBlockEnd
  0
BLOCK
  5
B6
100
AcDbEntity
  8
0
100
AcDbBlockBegin
  2
CDWK_EXTR_3
 70
     0
 10
0.0
 20
0.0
 30
0.0
  3
CDWK_EXTR_3
  1

  4
Cadwork line-extremity
  0
SOLID
  5
B7
100
AcDbEntity
  8
0
 62
     0
100
AcDbTrace
 10
0.0
 20
0.0
 11
2.0
 21
0.5
 12
2.0
 22
-0.5
 13
2.0
 23
-0.5
  0
LINE
  5
B8
100
AcDbEntity
  8
0
 62
     0
370
    -2
100
AcDbLine
 10
0.0
 20
1.0
 30
0.0
 11
0.0
 21
-1.0
 31
0.0
  0
ENDBLK
  5
B9
100
AcDbEntity
100
AcDbBlockEnd
  0
BLOCK
  5
BA
100
AcDbEntity
  8
0
100
AcDbBlockBegin
  2
CDWK_EXTR_4
 70
     0
 10
0.0
 20
0.0
 30
0.0
  3
CDWK_EXTR_4
  1

  4
Cadwork line-extremity
  0
HATCH
  5
BB
100
AcDbEntity
  8
0
 62
     0
370
    -2
100
AcDbHatch
 10
0.0
 20
0.0
 30
0.0
210
0.0
220
0.0
230
1.0
  2
SOLID
 70
     1
 71
     0
 91
        1
 92
        1
 93
        1
 72
     2
 10
0.0
 20
0.0
 40
0.5
 50
0.0
 51
360.0
 73
     1
 97
        0
 75
     0
 76
     1
 98
        1
 10
0.0
 20
0.0
  0
ENDBLK
  5
BC
100
AcDbEntity
100
AcDbBlockEnd
  0
BLOCK
  5
BD
100
AcDbEntity
  8
0
100
AcDbBlockBegin
  2
CDWK_PTTYP0
 70
     0
 10
0.0
 20
0.0
 30
0.0
  3
CDWK_PTTYP0
  1

  4
Cadwork point
  0
POINT
  5
BE
100
AcDbEntity
  8
0
 62
     0
100
AcDbPoint
 10
0.0
 20
0.0
 30
0.0
  0
ENDBLK
  5
BF
100
AcDbEntity
100
AcDbBlockEnd
  0
BLOCK
  5
C0
100
AcDbEntity
  8
detail
100
AcDbBlockBegin
  2
*X1
 70
     1
 10
0.0
 20
0.0
 30
0.0
  3
*X1
  1

  4
Cadwork hatch
  0
LINE
  5
C1
100
AcDbEntity
  8
detail
 62
    16
  6
CONTINUOUS
370
    -2
100
AcDbLine
 10
1.84125792
 20
-5.49851047
 30
0.0
 11
1.8403264
 21
-5.49944198
 31
0.0
  0
LINE
  5
C2
100
AcDbEntity
  8
detail
 62
    16
  6
CONTINUOUS
370
    -2
100
AcDbLine
 10
1.84832898
 20
-5.49851047
 30
0.0
 11
1.8403264
 21
-5.50651305
 31
0.0
  0
LINE
  5
C3
100
AcDbEntity
  8
detail
 62
    16
  6
CONTINUOUS
370
    -2
100
AcDbLine
 10
1.8553264
 20
-5.49858412
 30
0.0
 11
1.84467887
 21
-5.50923166
 31
0.0
  0
LINE
  5
C4
100
AcDbEntity
  8
detail
 62
    16
  6
CONTINUOUS
370
    -2
100
AcDbLine
 10
1.8553264
 20
-5.50565519
 30
0.0
 11
1.85174994
 21
-5.50923166
 31
0.0
  0
ENDBLK
  5
C5
100
AcDbEntity
100
AcDbBlockEnd
  0
BLOCK
  5
C6
100
AcDbEntity
  8
detail
100
AcDbBlockBegin
  2
*X2
 70
     1
 10
0.0
 20
0.0
 30
0.0
  3
*X2
  1

  4
Cadwork hatch
  0
LINE
  5
C7
100
AcDbEntity
  8
detail
 62
   250
  6
CONTINUOUS
370
    -2
100
AcDbLine
 10
1.8405
 20
-5.55423166
 30
0.0
 11
1.8405
 21
-5.56323166
 31
0.0
  0
LINE
  5
C8
100
AcDbEntity
  8
detail
 62
   250
  6
CONTINUOUS
370
    -2
100
AcDbLine
 10
1.842
 20
-5.55423166
 30
0.0
 11
1.842
 21
-5.56323166
 31
0.0
  0
LINE
  5
C9
100
AcDbEntity
  8
detail
 62
   250
  6
CONTINUOUS
370
    -2
100
AcDbLine
 10
1.8435
 20
-5.55423166
 30
0.0
 11
1.8435
 21
-5.56323166
 31
0.0
  0
LINE
  5
CA
100
AcDbEntity
  8
detail
 62
   250
  6
CONTINUOUS
370
    -2
100
AcDbLine
 10
1.845
 20
-5.55423166
 30
0.0
 11
1.845
 21
-5.56323166
 31
0.0
  0
LINE
  5
CB
100
AcDbEntity
  8
detail
 62
   250
  6
CONTINUOUS
370
    -2
100
AcDbLine
 10
1.8465
 20
-5.55423166
 30
0.0
 11
1.8465
 21
-5.56323166
 31
0.0
  0
LINE
  5
CC
100
AcDbEntity
  8
detail
 62
   250
  6
CONTINUOUS
370
    -2
100
AcDbLine
 10
1.848
 20
-5.55423166
 30
0.0
 11
1.848
 21
-5.56323166
 31
0.0
  0
ENDBLK
  5
CD
100
AcDbEntity
100
AcDbBlockEnd
  0
BLOCK
  5
CE
100
AcDbEntity
  8
detail
100
AcDbBlockBegin
  2
*X3
 70
     1
 10
0.0
 20
0.0
 30
0.0
  3
*X3
  1

  4
Cadwork hatch
  0
LINE
  5
CF
100
AcDbEntity
  8
detail
 62
   250
  6
CONTINUOUS
370
    -2
100
AcDbLine
 10
1.8403264
 20
-5.50125
 30
0.0
 11
1.8223264
 21
-5.50125
 31
0.0
  0
LINE
  5
D0
100
AcDbEntity
  8
detail
 62
   250
  6
CONTINUOUS
370
    -2
100
AcDbLine
 10
1.8403264
 20
-5.505
 30
0.0
 11
1.8223264
 21
-5.505
 31
0.0
  0
LINE
  5
D1
100
AcDbEntity
  8
detail
 62
   250
  6
CONTINUOUS
370
    -2
100
AcDbLine
 10
1.8403264
 20
-5.50875
 30
0.0
 11
1.8223264
 21
-5.50875
 31
0.0
  0
LINE
  5
D2
100
AcDbEntity
  8
detail
 62
   250
  6
CONTINUOUS
370
    -2
100
AcDbLine
 10
1.8403264
 20
-5.5125
 30
0.0
 11
1.8223264
 21
-5.5125
 31
0.0
  0
LINE
  5
D3
100
AcDbEntity
  8
detail
 62
   250
  6
CONTINUOUS
370
    -2
100
AcDbLine
 10
1.8403264
 20
-5.51625
 30
0.0
 11
1.8223264
 21
-5.51625
 31
0.0
  0
LINE
  5
D4
100
AcDbEntity
  8
detail
 62
   250
  6
CONTINUOUS
370
    -2
100
AcDbLine
 10
1.8403264
 20
-5.52
 30
0.0
 11
1.8223264
 21
-5.52
 31
0.0
  0
LINE
  5
D5
100
AcDbEntity
  8
detail
 62
   250
  6
CONTINUOUS
370
    -2
100
AcDbLine
 10
1.8403264
 20
-5.52375
 30
0.0
 11
1.8223264
 21
-5.52375
 31
0.0
  0
LINE
  5
D6
100
AcDbEntity
  8
detail
 62
   250
  6
CONTINUOUS
370
    -2
100
AcDbLine
 10
1.8403264
 20
-5.5275
 30
0.0
 11
1.8223264
 21
-5.5275
 31
0.0
  0
LINE
  5
D7
100
AcDbEntity
  8
detail
 62
   250
  6
CONTINUOUS
370
    -2
100
AcDbLine
 10
1.8403264
 20
-5.53125
 30
0.0
 11
1.8223264
 21
-5.53125
 31
0.0
  0
LINE
  5
D8
100
AcDbEntity
  8
detail
 62
   250
  6
CONTINUOUS
370
    -2
100
AcDbLine
 10
1.8403264
 20
-5.535
 30
0.0
 11
1.8223264
 21
-5.535
 31
0.0
  0
LINE
  5
D9
100
AcDbEntity
  8
detail
 62
   250
  6
CONTINUOUS
370
    -2
100
AcDbLine
 10
1.8403264
 20
-5.53875
 30
0.0
 11
1.8223264
 21
-5.53875
 31
0.0
  0
LINE
  5
DA
100
AcDbEntity
  8
detail
 62
   250
  6
CONTINUOUS
370
    -2
100
AcDbLine
 10
1.8403264
 20
-5.5425
 30
0.0
 11
1.8223264
 21
-5.5425
 31
0.0
  0
LINE
  5
DB
100
AcDbEntity
  8
detail
 62
   250
  6
CONTINUOUS
370
    -2
100
AcDbLine
 10
1.8403264
 20
-5.54625
 30
0.0
 11
1.8223264
 21
-5.54625
 31
0.0
  0
LINE
  5
DC
100
AcDbEntity
  8
detail
 62
   250
  6
CONTINUOUS
370
    -2
100
AcDbLine
 10
1.8403264
 20
-5.55
 30
0.0
 11
1.8223264
 21
-5.55
 31
0.0
  0
LINE
  5
DD
100
AcDbEntity
  8
detail
 62
   250
  6
CONTINUOUS
370
    -2
100
AcDbLine
 10
1.8403264
 20
-5.55375
 30
0.0
 11
1.8223264
 21
-5.55375
 31
0.0
  0
LINE
  5
DE
100
AcDbEntity
  8
detail
 62
   250
  6
CONTINUOUS
370
    -2
100
AcDbLine
 10
1.8403264
 20
-5.5575
 30
0.0
 11
1.8223264
 21
-5.5575
 31
0.0
  0
LINE
  5
DF
100
AcDbEntity
  8
detail
 62
   250
  6
CONTINUOUS
370
    -2
100
AcDbLine
 10
1.8403264
 20
-5.56125
 30
0.0
 11
1.8223264
 21
-5.56125
 31
0.0
  0
ENDBLK
  5
E0
100
AcDbEntity
100
AcDbBlockEnd
  0
BLOCK
  5
E1
100
AcDbEntity
  8
detail
100
AcDbBlockBegin
  2
*X4
 70
     1
 10
0.0
 20
0.0
 30
0.0
  3
*X4
  1

  4
Cadwork hatch
  0
LINE
  5
E2
100
AcDbEntity
  8
detail
 62
    16
  6
CONTINUOUS
370
    -2
100
AcDbLine
 10
1.8575
 20
-5.52623166
 30
0.0
 11
1.8575
 21
-5.53023166
 31
0.0
  0
LINE
  5
E3
100
AcDbEntity
  8
detail
 62
    16
  6
CONTINUOUS
370
    -2
100
AcDbLine
 10
1.86
 20
-5.52623166
 30
0.0
 11
1.86
 21
-5.53023166
 31
0.0
  0
LINE
  5
E4
100
AcDbEntity
  8
detail
 62
    16
  6
CONTINUOUS
370
    -2
100
AcDbLine
 10
1.8625
 20
-5.52623166
 30
0.0
 11
1.8625
 21
-5.53023166
 31
0.0
  0
LINE
  5
E5
100
AcDbEntity
  8
detail
 62
    16
  6
CONTINUOUS
370
    -2
100
AcDbLine
 10
1.865
 20
-5.52623166
 30
0.0
 11
1.865
 21
-5.53023166
 31
0.0
  0
LINE
  5
E6
100
AcDbEntity
  8
detail
 62
    16
  6
CONTINUOUS
370
    -2
100
AcDbLine
 10
1.8675
 20
-5.52623166
 30
0.0
 11
1.8675
 21
-5.53023166
 31
0.0
  0
LINE
  5
E7
100
AcDbEntity
  8
detail
 62
    16
  6
CONTINUOUS
370
    -2
100
AcDbLine
 10
1.87
 20
-5.52623166
 30
0.0
 11
1.87
 21
-5.53023166
 31
0.0
  0
LINE
  5
E8
100
AcDbEntity
  8
detail
 62
    16
  6
CONTINUOUS
370
    -2
100
AcDbLine
 10
1.8725
 20
-5.52623166
 30
0.0
 11
1.8725
 21
-5.53023166
 31
0.0
  0
LINE
  5
E9
100
AcDbEntity
  8
detail
 62
    16
  6
CONTINUOUS
370
    -2
100
AcDbLine
 10
1.875
 20
-5.52623166
 30
0.0
 11
1.875
 21
-5.53023166
 31
0.0
  0
LINE
  5
EA
100
AcDbEntity
  8
detail
 62
    16
  6
CONTINUOUS
370
    -2
100
AcDbLine
 10
1.8775
 20
-5.52623166
 30
0.0
 11
1.8775
 21
-5.53023166
 31
0.0
  0
LINE
  5
EB
100
AcDbEntity
  8
detail
 62
    16
  6
CONTINUOUS
370
    -2
100
AcDbLine
 10
1.88
 20
-5.52623166
 30
0.0
 11
1.88
 21
-5.53023166
 31
0.0
  0
LINE
  5
EC
100
AcDbEntity
  8
detail
 62
    16
  6
CONTINUOUS
370
    -2
100
AcDbLine
 10
1.8825
 20
-5.52623166
 30
0.0
 11
1.8825
 21
-5.53023166
 31
0.0
  0
LINE
  5
ED
100
AcDbEntity
  8
detail
 62
    16
  6
CONTINUOUS
370
    -2
100
AcDbLine
 10
1.885
 20
-5.52623166
 30
0.0
 11
1.885
 21
-5.53023166
 31
0.0
  0
LINE
  5
EE
100
AcDbEntity
  8
detail
 62
    16
  6
CONTINUOUS
370
    -2
100
AcDbLine
 10
1.8875
 20
-5.52623166
 30
0.0
 11
1.8875
 21
-5.53023166
 31
0.0
  0
LINE
  5
EF
100
AcDbEntity
  8
detail
 62
    16
  6
CONTINUOUS
370
    -2
100
AcDbLine
 10
1.89
 20
-5.52623166
 30
0.0
 11
1.89
 21
-5.53023166
 31
0.0
  0
LINE
  5
F0
100
AcDbEntity
  8
detail
 62
    16
  6
CONTINUOUS
370
    -2
100
AcDbLine
 10
1.8925
 20
-5.52623166
 30
0.0
 11
1.8925
 21
-5.53023166
 31
0.0
  0
LINE
  5
F1
100
AcDbEntity
  8
detail
 62
    16
  6
CONTINUOUS
370
    -2
100
AcDbLine
 10
1.895
 20
-5.52623166
 30
0.0
 11
1.895
 21
-5.53023166
 31
0.0
  0
LINE
  5
F2
100
AcDbEntity
  8
detail
 62
    16
  6
CONTINUOUS
370
    -2
100
AcDbLine
 10
1.8975
 20
-5.52623166
 30
0.0
 11
1.8975
 21
-5.53023166
 31
0.0
  0
LINE
  5
F3
100
AcDbEntity
  8
detail
 62
    16
  6
CONTINUOUS
370
    -2
100
AcDbLine
 10
1.9
 20
-5.52623166
 30
0.0
 11
1.9
 21
-5.53023166
 31
0.0
  0
LINE
  5
F4
100
AcDbEntity
  8
detail
 62
    16
  6
CONTINUOUS
370
    -2
100
AcDbLine
 10
1.9025
 20
-5.52623166
 30
0.0
 11
1.9025
 21
-5.53023166
 31
0.0
  0
LINE
  5
F5
100
AcDbEntity
  8
detail
 62
    16
  6
CONTINUOUS
370
    -2
100
AcDbLine
 10
1.905
 20
-5.52623166
 30
0.0
 11
1.905
 21
-5.53023166
 31
0.0
  0
LINE
  5
F6
100
AcDbEntity
  8
detail
 62
    16
  6
CONTINUOUS
370
    -2
100
AcDbLine
 10
1.9075
 20
-5.52623166
 30
0.0
 11
1.9075
 21
-5.53023166
 31
0.0
  0
LINE
  5
F7
100
AcDbEntity
  8
detail
 62
    16
  6
CONTINUOUS
370
    -2
100
AcDbLine
 10
1.91
 20
-5.52623166
 30
0.0
 11
1.91
 21
-5.53023166
 31
0.0
  0
LINE
  5
F8
100
AcDbEntity
  8
detail
 62
    16
  6
CONTINUOUS
370
    -2
100
AcDbLine
 10
1.9125
 20
-5.52623166
 30
0.0
 11
1.9125
 21
-5.53023166
 31
0.0
  0
LINE
  5
F9
100
AcDbEntity
  8
detail
 62
    16
  6
CONTINUOUS
370
    -2
100
AcDbLine
 10
1.915
 20
-5.52623166
 30
0.0
 11
1.915
 21
-5.53023166
 31
0.0
  0
LINE
  5
FA
100
AcDbEntity
  8
detail
 62
    16
  6
CONTINUOUS
370
    -2
100
AcDbLine
 10
1.9175
 20
-5.52623166
 30
0.0
 11
1.9175
 21
-5.53023166
 31
0.0
  0
LINE
  5
FB
100
AcDbEntity
  8
detail
 62
    16
  6
CONTINUOUS
370
    -2
100
AcDbLine
 10
1.92
 20
-5.52623166
 30
0.0
 11
1.92
 21
-5.53023166
 31
0.0
  0
LINE
  5
FC
100
AcDbEntity
  8
detail
 62
    16
  6
CONTINUOUS
370
    -2
100
AcDbLine
 10
1.9225
 20
-5.52623166
 30
0.0
 11
1.9225
 21
-5.53023166
 31
0.0
  0
LINE
  5
FD
100
AcDbEntity
  8
detail
 62
    16
  6
CONTINUOUS
370
    -2
100
AcDbLine
 10
1.925
 20
-5.52623166
 30
0.0
 11
1.925
 21
-5.53023166
 31
0.0
  0
LINE
  5
FE
100
AcDbEntity
  8
detail
 62
    16
  6
CONTINUOUS
370
    -2
100
AcDbLine
 10
1.9275
 20
-5.52623166
 30
0.0
 11
1.9275
 21
-5.53023166
 31
0.0
  0
LINE
  5
FF
100
AcDbEntity
  8
detail
 62
    16
  6
CONTINUOUS
370
    -2
100
AcDbLine
 10
1.93
 20
-5.52623166
 30
0.0
 11
1.93
 21
-5.53023166
 31
0.0
  0
ENDBLK
  5
100
100
AcDbEntity
100
AcDbBlockEnd
  0
BLOCK
  5
101
100
AcDbEntity
  8
detail
100
AcDbBlockBegin
  2
*X5
 70
     1
 10
0.0
 20
0.0
 30
0.0
  3
*X5
  1

  4
Cadwork hatch
  0
LINE
  5
102
100
AcDbEntity
  8
detail
 62
    16
  6
CONTINUOUS
370
    -2
100
AcDbLine
 10
1.84489207
 20
-5.53023166
 30
0.0
 11
1.8403264
 21
-5.53479732
 31
0.0
  0
LINE
  5
103
100
AcDbEntity
  8
detail
 62
    16
  6
CONTINUOUS
370
    -2
100
AcDbLine
 10
1.85196314
 20
-5.53023166
 30
0.0
 11
1.8403264
 21
-5.54186839
 31
0.0
  0
LINE
  5
104
100
AcDbEntity
  8
detail
 62
    16
  6
CONTINUOUS
370
    -2
100
AcDbLine
 10
1.85903421
 20
-5.53023166
 30
0.0
 11
1.8403264
 21
-5.54893946
 31
0.0
  0
LINE
  5
105
100
AcDbEntity
  8
detail
 62
    16
  6
CONTINUOUS
370
    -2
100
AcDbLine
 10
1.86610528
 20
-5.53023166
 30
0.0
 11
1.84210528
 21
-5.55423166
 31
0.0
  0
LINE
  5
106
100
AcDbEntity
  8
detail
 62
    16
  6
CONTINUOUS
370
    -2
100
AcDbLine
 10
1.87317634
 20
-5.53023166
 30
0.0
 11
1.84917634
 21
-5.55423166
 31
0.0
  0
LINE
  5
107
100
AcDbEntity
  8
detail
 62
    16
  6
CONTINUOUS
370
    -2
100
AcDbLine
 10
1.88024741
 20
-5.53023166
 30
0.0
 11
1.85624741
 21
-5.55423166
 31
0.0
  0
LINE
  5
108
100
AcDbEntity
  8
detail
 62
    16
  6
CONTINUOUS
370
    -2
100
AcDbLine
 10
1.88731848
 20
-5.53023166
 30
0.0
 11
1.86331848
 21
-5.55423166
 31
0.0
  0
LINE
  5
109
100
AcDbEntity
  8
detail
 62
    16
  6
CONTINUOUS
370
    -2
100
AcDbLine
 10
1.89438955
 20
-5.53023166
 30
0.0
 11
1.87038955
 21
-5.55423166
 31
0.0
  0
LINE
  5
10A
100
AcDbEntity
  8
detail
 62
    16
  6
CONTINUOUS
370
    -2
100
AcDbLine
 10
1.90146061
 20
-5.53023166
 30
0.0
 11
1.87746061
 21
-5.55423166
 31
0.0
  0
LINE
  5
10B
100
AcDbEntity
  8
detail
 62
    16
  6
CONTINUOUS
370
    -2
100
AcDbLine
 10
1.90853168
 20
-5.53023166
 30
0.0
 11
1.88453168
 21
-5.55423166
 31
0.0
  0
LINE
  5
10C
100
AcDbEntity
  8
detail
 62
    16
  6
CONTINUOUS
370
    -2
100
AcDbLine
 10
1.91560275
 20
-5.53023166
 30
0.0
 11
1.89160275
 21
-5.55423166
 31
0.0
  0
LINE
  5
10D
100
AcDbEntity
  8
detail
 62
    16
  6
CONTINUOUS
370
    -2
100
AcDbLine
 10
1.92267382
 20
-5.53023166
 30
0.0
 11
1.89867382
 21
-5.55423166
 31
0.0
  0
LINE
  5
10E
100
AcDbEntity
  8
detail
 62
    16
  6
CONTINUOUS
370
    -2
100
AcDbLine
 10
1.92974489
 20
-5.53023166
 30
0.0
 11
1.90574489
 21
-5.55423166
 31
0.0
  0
LINE
  5
10F
100
AcDbEntity
  8
detail
 62
    16
  6
CONTINUOUS
370
    -2
100
AcDbLine
 10
1.9307099
 20
-5.53633771
 30
0.0
 11
1.91281595
 21
-5.55423166
 31
0.0
  0
LINE
  5
110
100
AcDbEntity
  8
detail
 62
    16
  6
CONTINUOUS
370
    -2
100
AcDbLine
 10
1.9307099
 20
-5.54340878
 30
0.0
 11
1.91988702
 21
-5.55423166
 31
0.0
  0
LINE
  5
111
100
AcDbEntity
  8
detail
 62
    16
  6
CONTINUOUS
370
    -2
100
AcDbLine
 10
1.9307099
 20
-5.55047985
 30
0.0
 11
1.92695809
 21
-5.55423166
 31
0.0
  0
LINE
  5
112
100
AcDbEntity
  8
detail
 62
    16
  6
CONTINUOUS
370
    -2
100
AcDbLine
 10
1.8403264
 20
-5.55263701
 30
0.0
 11
1.84192105
 21
-5.55423166
 31
0.0
  0
LINE
  5
113
100
AcDbEntity
  8
detail
 62
    16
  6
CONTINUOUS
370
    -2
100
AcDbLine
 10
1.8403264
 20
-5.54556594
 30
0.0
 11
1.84899212
 21
-5.55423166
 31
0.0
  0
LINE
  5
114
100
AcDbEntity
  8
detail
 62
    16
  6
CONTINUOUS
370
    -2
100
AcDbLine
 10
1.8403264
 20
-5.53849487
 30
0.0
 11
1.85606319
 21
-5.55423166
 31
0.0
  0
LINE
  5
115
100
AcDbEntity
  8
detail
 62
    16
  6
CONTINUOUS
370
    -2
100
AcDbLine
 10
1.8403264
 20
-5.5314238
 30
0.0
 11
1.86313426
 21
-5.55423166
 31
0.0
  0
LINE
  5
116
100
AcDbEntity
  8
detail
 62
    16
  6
CONTINUOUS
370
    -2
100
AcDbLine
 10
1.84620533
 20
-5.53023166
 30
0.0
 11
1.87020533
 21
-5.55423166
 31
0.0
  0
LINE
  5
117
100
AcDbEntity
  8
detail
 62
    16
  6
CONTINUOUS
370
    -2
100
AcDbLine
 10
1.85327639
 20
-5.53023166
 30
0.0
 11
1.87727639
 21
-5.55423166
 31
0.0
  0
LINE
  5
118
100
AcDbEntity
  8
detail
 62
    16
  6
CONTINUOUS
370
    -2
100
AcDbLine
 10
1.86034746
 20
-5.53023166
 30
0.0
 11
1.88434746
 21
-5.55423166
 31
0.0
  0
LINE
  5
119
100
AcDbEntity
  8
detail
 62
    16
  6
CONTINUOUS
370
    -2
100
AcDbLine
 10
1.86741853
 20
-5.53023166
 30
0.0
 11
1.89141853
 21
-5.55423166
 31
0.0
  0
LINE
  5
11A
100
AcDbEntity
  8
detail
 62
    16
  6
CONTINUOUS
370
    -2
100
AcDbLine
 10
1.8744896
 20
-5.53023166
 30
0.0
 11
1.8984896
 21
-5.55423166
 31
0.0
  0
LINE
  5
11B
100
AcDbEntity
  8
detail
 62
    16
  6
CONTINUOUS
370
    -2
100
AcDbLine
 10
1.88156066
 20
-5.53023166
 30
0.0
 11
1.90556066
 21
-5.55423166
 31
0.0
  0
LINE
  5
11C
100
AcDbEntity
  8
detail
 62
    16
  6
CONTINUOUS
370
    -2
100
AcDbLine
 10
1.88863173
 20
-5.53023166
 30
0.0
 11
1.91263173
 21
-5.55423166
 31
0.0
  0
LINE
  5
11D
100
AcDbEntity
  8
detail
 62
    16
  6
CONTINUOUS
370
    -2
100
AcDbLine
 10
1.8957028
 20
-5.53023166
 30
0.0
 11
1.9197028
 21
-5.55423166
 31
0.0
  0
LINE
  5
11E
100
AcDbEntity
  8
detail
 62
    16
  6
CONTINUOUS
370
    -2
100
AcDbLine
 10
1.90277387
 20
-5.53023166
 30
0.0
 11
1.92677387
 21
-5.55423166
 31
0.0
  0
LINE
  5
11F
100
AcDbEntity
  8
detail
 62
    16
  6
CONTINUOUS
370
    -2
100
AcDbLine
 10
1.90984494
 20
-5.53023166
 30
0.0
 11
1.9307099
 21
-5.55109662
 31
0.0
  0
LINE
  5
120
100
AcDbEntity
  8
detail
 62
    16
  6
CONTINUOUS
370
    -2
100
AcDbLine
 10
1.916916
 20
-5.53023166
 30
0.0
 11
1.9307099
 21
-5.54402555
 31
0.0
  0
LINE
  5
121
100
AcDbEntity
  8
detail
 62
    16
  6
CONTINUOUS
370
    -2
100
AcDbLine
 10
1.92398707
 20
-5.53023166
 30
0.0
 11
1.9307099
 21
-5.53695448
 31
0.0
  0
ENDBLK
  5
122
100
AcDbEntity
100
AcDbBlockEnd
  0
BLOCK
  5
123
100
AcDbEntity
  8
detail
100
AcDbBlockBegin
  2
*X6
 70
     1
 10
0.0
 20
0.0
 30
0.0
  3
*X6
  1

  4
Cadwork hatch
  0
LINE
  5
124
100
AcDbEntity
  8
detail
 62
    16
  6
CONTINUOUS
370
    -2
100
AcDbLine
 10
1.84125792
 20
-5.49851047
 30
0.0
 11
1.8403264
 21
-5.49944198
 31
0.0
  0
LINE
  5
125
100
AcDbEntity
  8
detail
 62
    16
  6
CONTINUOUS
370
    -2
100
AcDbLine
 10
1.84832898
 20
-5.49851047
 30
0.0
 11
1.8403264
 21
-5.50651305
 31
0.0
  0
LINE
  5
126
100
AcDbEntity
  8
detail
 62
    16
  6
CONTINUOUS
370
    -2
100
AcDbLine
 10
1.8553264
 20
-5.49858412
 30
0.0
 11
1.84467887
 21
-5.50923166
 31
0.0
  0
LINE
  5
127
100
AcDbEntity
  8
detail
 62
    16
  6
CONTINUOUS
370
    -2
100
AcDbLine
 10
1.8553264
 20
-5.50565519
 30
0.0
 11
1.85174994
 21
-5.50923166
 31
0.0
  0
ENDBLK
  5
128
100
AcDbEntity
100
AcDbBlockEnd
  0
BLOCK
  5
129
100
AcDbEntity
  8
detail
100
AcDbBlockBegin
  2
*X7
 70
     1
 10
0.0
 20
0.0
 30
0.0
  3
*X7
  1

  4
Cadwork hatch
  0
LINE
  5
12A
100
AcDbEntity
  8
detail
 62
    16
  6
CONTINUOUS
370
    -2
100
AcDbLine
 10
1.8562264
 20
-5.59402187
 30
0.0
 11
1.8557264
 21
-5.59402187
 31
0.0
  0
LINE
  5
12B
100
AcDbEntity
  8
detail
 62
    16
  6
CONTINUOUS
370
    -2
100
AcDbLine
 10
1.8562264
 20
-5.59642687
 30
0.0
 11
1.8557264
 21
-5.59642687
 31
0.0
  0
LINE
  5
12C
100
AcDbEntity
  8
detail
 62
    16
  6
CONTINUOUS
370
    -2
100
AcDbLine
 10
1.8562264
 20
-5.59883187
 30
0.0
 11
1.8557264
 21
-5.59883187
 31
0.0
  0
LINE
  5
12D
100
AcDbEntity
  8
detail
 62
    16
  6
CONTINUOUS
370
    -2
100
AcDbLine
 10
1.8562264
 20
-5.60123686
 30
0.0
 11
1.8557264
 21
-5.60123686
 31
0.0
  0
LINE
  5
12E
100
AcDbEntity
  8
detail
 62
    16
  6
CONTINUOUS
370
    -2
100
AcDbLine
 10
1.8562264
 20
-5.60364186
 30
0.0
 11
1.8557264
 21
-5.60364186
 31
0.0
  0
LINE
  5
12F
100
AcDbEntity
  8
detail
 62
    16
  6
CONTINUOUS
370
    -2
100
AcDbLine
 10
1.8562264
 20
-5.60604686
 30
0.0
 11
1.8557264
 21
-5.60604686
 31
0.0
  0
LINE
  5
130
100
AcDbEntity
  8
detail
 62
    16
  6
CONTINUOUS
370
    -2
100
AcDbLine
 10
1.8562264
 20
-5.60845185
 30
0.0
 11
1.8557264
 21
-5.60845185
 31
0.0
  0
LINE
  5
131
100
AcDbEntity
  8
detail
 62
    16
  6
CONTINUOUS
370
    -2
100
AcDbLine
 10
1.8562264
 20
-5.61085685
 30
0.0
 11
1.8557264
 21
-5.61085685
 31
0.0
  0
LINE
  5
132
100
AcDbEntity
  8
detail
 62
    16
  6
CONTINUOUS
370
    -2
100
AcDbLine
 10
1.8562264
 20
-5.61326185
 30
0.0
 11
1.8557264
 21
-5.61326185
 31
0.0
  0
LINE
  5
133
100
AcDbEntity
  8
detail
 62
    16
  6
CONTINUOUS
370
    -2
100
AcDbLine
 10
1.8562264
 20
-5.61566684
 30
0.0
 11
1.8557264
 21
-5.61566684
 31
0.0
  0
LINE
  5
134
100
AcDbEntity
  8
detail
 62
    16
  6
CONTINUOUS
370
    -2
100
AcDbLine
 10
1.8562264
 20
-5.61807184
 30
0.0
 11
1.8557264
 21
-5.61807184
 31
0.0
  0
LINE
  5
135
100
AcDbEntity
  8
detail
 62
    16
  6
CONTINUOUS
370
    -2
100
AcDbLine
 10
1.8562264
 20
-5.62047684
 30
0.0
 11
1.8557264
 21
-5.62047684
 31
0.0
  0
LINE
  5
136
100
AcDbEntity
  8
detail
 62
    16
  6
CONTINUOUS
370
    -2
100
AcDbLine
 10
1.8562264
 20
-5.62288183
 30
0.0
 11
1.8557264
 21
-5.62288183
 31
0.0
  0
LINE
  5
137
100
AcDbEntity
  8
detail
 62
    16
  6
CONTINUOUS
370
    -2
100
AcDbLine
 10
1.8562264
 20
-5.62528683
 30
0.0
 11
1.8557264
 21
-5.62528683
 31
0.0
  0
LINE
  5
138
100
AcDbEntity
  8
detail
 62
    16
  6
CONTINUOUS
370
    -2
100
AcDbLine
 10
1.8562264
 20
-5.62769183
 30
0.0
 11
1.8557264
 21
-5.62769183
 31
0.0
  0
LINE
  5
139
100
AcDbEntity
  8
detail
 62
    16
  6
CONTINUOUS
370
    -2
100
AcDbLine
 10
1.8562264
 20
-5.63009682
 30
0.0
 11
1.8557264
 21
-5.63009682
 31
0.0
  0
LINE
  5
13A
100
AcDbEntity
  8
detail
 62
    16
  6
CONTINUOUS
370
    -2
100
AcDbLine
 10
1.8562264
 20
-5.63250182
 30
0.0
 11
1.8557264
 21
-5.63250182
 31
0.0
  0
LINE
  5
13B
100
AcDbEntity
  8
detail
 62
    16
  6
CONTINUOUS
370
    -2
100
AcDbLine
 10
1.8562264
 20
-5.63490682
 30
0.0
 11
1.8557264
 21
-5.63490682
 31
0.0
  0
LINE
  5
13C
100
AcDbEntity
  8
detail
 62
    16
  6
CONTINUOUS
370
    -2
100
AcDbLine
 10
1.8562264
 20
-5.63731181
 30
0.0
 11
1.8557264
 21
-5.63731181
 31
0.0
  0
LINE
  5
13D
100
AcDbEntity
  8
detail
 62
    16
  6
CONTINUOUS
370
    -2
100
AcDbLine
 10
1.8562264
 20
-5.63971681
 30
0.0
 11
1.8557264
 21
-5.63971681
 31
0.0
  0
ENDBLK
  5
13E
100
AcDbEntity
100
AcDbBlockEnd
  0
BLOCK
  5
13F
100
AcDbEntity
  8
detail
100
AcDbBlockBegin
  2
*X8
 70
     1
 10
0.0
 20
0.0
 30
0.0
  3
*X8
  1

  4
Cadwork hatch
  0
LINE
  5
140
100
AcDbEntity
  8
detail
 62
    16
  6
CONTINUOUS
370
    -2
100
AcDbLine
 10
1.85468133
 20
-5.59402187
 30
0.0
 11
1.85418133
 21
-5.59402187
 31
0.0
  0
LINE
  5
141
100
AcDbEntity
  8
detail
 62
    16
  6
CONTINUOUS
370
    -2
100
AcDbLine
 10
1.85468133
 20
-5.59642687
 30
0.0
 11
1.85418133
 21
-5.59642687
 31
0.0
  0
LINE
  5
142
100
AcDbEntity
  8
detail
 62
    16
  6
CONTINUOUS
370
    -2
100
AcDbLine
 10
1.85468133
 20
-5.59883187
 30
0.0
 11
1.85418133
 21
-5.59883187
 31
0.0
  0
LINE
  5
143
100
AcDbEntity
  8
detail
 62
    16
  6
CONTINUOUS
370
    -2
100
AcDbLine
 10
1.85468133
 20
-5.60123686
 30
0.0
 11
1.85418133
 21
-5.60123686
 31
0.0
  0
LINE
  5
144
100
AcDbEntity
  8
detail
 62
    16
  6
CONTINUOUS
370
    -2
100
AcDbLine
 10
1.85468133
 20
-5.60364186
 30
0.0
 11
1.85418133
 21
-5.60364186
 31
0.0
  0
LINE
  5
145
100
AcDbEntity
  8
detail
 62
    16
  6
CONTINUOUS
370
    -2
100
AcDbLine
 10
1.85468133
 20
-5.60604686
 30
0.0
 11
1.85418133
 21
-5.60604686
 31
0.0
  0
LINE
  5
146
100
AcDbEntity
  8
detail
 62
    16
  6
CONTINUOUS
370
    -2
100
AcDbLine
 10
1.85468133
 20
-5.60845185
 30
0.0
 11
1.85418133
 21
-5.60845185
 31
0.0
  0
LINE
  5
147
100
AcDbEntity
  8
detail
 62
    16
  6
CONTINUOUS
370
    -2
100
AcDbLine
 10
1.85468133
 20
-5.61085685
 30
0.0
 11
1.85418133
 21
-5.61085685
 31
0.0
  0
LINE
  5
148
100
AcDbEntity
  8
detail
 62
    16
  6
CONTINUOUS
370
    -2
100
AcDbLine
 10
1.85468133
 20
-5.61326185
 30
0.0
 11
1.85418133
 21
-5.61326185
 31
0.0
  0
LINE
  5
149
100
AcDbEntity
  8
detail
 62
    16
  6
CONTINUOUS
370
    -2
100
AcDbLine
 10
1.85468133
 20
-5.61566684
 30
0.0
 11
1.85418133
 21
-5.61566684
 31
0.0
  0
LINE
  5
14A
100
AcDbEntity
  8
detail
 62
    16
  6
CONTINUOUS
370
    -2
100
AcDbLine
 10
1.85468133
 20
-5.61807184
 30
0.0
 11
1.85418133
 21
-5.61807184
 31
0.0
  0
LINE
  5
14B
100
AcDbEntity
  8
detail
 62
    16
  6
CONTINUOUS
370
    -2
100
AcDbLine
 10
1.85468133
 20
-5.62047684
 30
0.0
 11
1.85418133
 21
-5.62047684
 31
0.0
  0
LINE
  5
14C
100
AcDbEntity
  8
detail
 62
    16
  6
CONTINUOUS
370
    -2
100
AcDbLine
 10
1.85468133
 20
-5.62288183
 30
0.0
 11
1.85418133
 21
-5.62288183
 31
0.0
  0
LINE
  5
14D
100
AcDbEntity
  8
detail
 62
    16
  6
CONTINUOUS
370
    -2
100
AcDbLine
 10
1.85468133
 20
-5.62528683
 30
0.0
 11
1.85418133
 21
-5.62528683
 31
0.0
  0
LINE
  5
14E
100
AcDbEntity
  8
detail
 62
    16
  6
CONTINUOUS
370
    -2
100
AcDbLine
 10
1.85468133
 20
-5.62769183
 30
0.0
 11
1.85418133
 21
-5.62769183
 31
0.0
  0
LINE
  5
14F
100
AcDbEntity
  8
detail
 62
    16
  6
CONTINUOUS
370
    -2
100
AcDbLine
 10
1.85468133
 20
-5.63009682
 30
0.0
 11
1.85418133
 21
-5.63009682
 31
0.0
  0
LINE
  5
150
100
AcDbEntity
  8
detail
 62
    16
  6
CONTINUOUS
370
    -2
100
AcDbLine
 10
1.85468133
 20
-5.63250182
 30
0.0
 11
1.85418133
 21
-5.63250182
 31
0.0
  0
LINE
  5
151
100
AcDbEntity
  8
detail
 62
    16
  6
CONTINUOUS
370
    -2
100
AcDbLine
 10
1.85468133
 20
-5.63490682
 30
0.0
 11
1.85418133
 21
-5.63490682
 31
0.0
  0
LINE
  5
152
100
AcDbEntity
  8
detail
 62
    16
  6
CONTINUOUS
370
    -2
100
AcDbLine
 10
1.85468133
 20
-5.63731181
 30
0.0
 11
1.85418133
 21
-5.63731181
 31
0.0
  0
LINE
  5
153
100
AcDbEntity
  8
detail
 62
    16
  6
CONTINUOUS
370
    -2
100
AcDbLine
 10
1.85468133
 20
-5.63971681
 30
0.0
 11
1.85418133
 21
-5.63971681
 31
0.0
  0
ENDBLK
  5
154
100
AcDbEntity
100
AcDbBlockEnd
  0
BLOCK
  5
155
100
AcDbEntity
  8
detail
100
AcDbBlockBegin
  2
*X9
 70
     1
 10
0.0
 20
0.0
 30
0.0
  3
*X9
  1

  4
Cadwork hatch
  0
LINE
  5
156
100
AcDbEntity
  8
detail
 62
    16
  6
CONTINUOUS
370
    -2
100
AcDbLine
 10
1.85313626
 20
-5.59402187
 30
0.0
 11
1.85263626
 21
-5.59402187
 31
0.0
  0
LINE
  5
157
100
AcDbEntity
  8
detail
 62
    16
  6
CONTINUOUS
370
    -2
100
AcDbLine
 10
1.85313626
 20
-5.59642687
 30
0.0
 11
1.85263626
 21
-5.59642687
 31
0.0
  0
LINE
  5
158
100
AcDbEntity
  8
detail
 62
    16
  6
CONTINUOUS
370
    -2
100
AcDbLine
 10
1.85313626
 20
-5.59883187
 30
0.0
 11
1.85263626
 21
-5.59883187
 31
0.0
  0
LINE
  5
159
100
AcDbEntity
  8
detail
 62
    16
  6
CONTINUOUS
370
    -2
100
AcDbLine
 10
1.85313626
 20
-5.60123686
 30
0.0
 11
1.85263626
 21
-5.60123686
 31
0.0
  0
LINE
  5
15A
100
AcDbEntity
  8
detail
 62
    16
  6
CONTINUOUS
370
    -2
100
AcDbLine
 10
1.85313626
 20
-5.60364186
 30
0.0
 11
1.85263626
 21
-5.60364186
 31
0.0
  0
LINE
  5
15B
100
AcDbEntity
  8
detail
 62
    16
  6
CONTINUOUS
370
    -2
100
AcDbLine
 10
1.85313626
 20
-5.60604686
 30
0.0
 11
1.85263626
 21
-5.60604686
 31
0.0
  0
LINE
  5
15C
100
AcDbEntity
  8
detail
 62
    16
  6
CONTINUOUS
370
    -2
100
AcDbLine
 10
1.85313626
 20
-5.60845185
 30
0.0
 11
1.85263626
 21
-5.60845185
 31
0.0
  0
LINE
  5
15D
100
AcDbEntity
  8
detail
 62
    16
  6
CONTINUOUS
370
    -2
100
AcDbLine
 10
1.85313626
 20
-5.61085685
 30
0.0
 11
1.85263626
 21
-5.61085685
 31
0.0
  0
LINE
  5
15E
100
AcDbEntity
  8
detail
 62
    16
  6
CONTINUOUS
370
    -2
100
AcDbLine
 10
1.85313626
 20
-5.61326185
 30
0.0
 11
1.85263626
 21
-5.61326185
 31
0.0
  0
LINE
  5
15F
100
AcDbEntity
  8
detail
 62
    16
  6
CONTINUOUS
370
    -2
100
AcDbLine
 10
1.85313626
 20
-5.61566684
 30
0.0
 11
1.85263626
 21
-5.61566684
 31
0.0
  0
LINE
  5
160
100
AcDbEntity
  8
detail
 62
    16
  6
CONTINUOUS
370
    -2
100
AcDbLine
 10
1.85313626
 20
-5.61807184
 30
0.0
 11
1.85263626
 21
-5.61807184
 31
0.0
  0
LINE
  5
161
100
AcDbEntity
  8
detail
 62
    16
  6
CONTINUOUS
370
    -2
100
AcDbLine
 10
1.85313626
 20
-5.62047684
 30
0.0
 11
1.85263626
 21
-5.62047684
 31
0.0
  0
LINE
  5
162
100
AcDbEntity
  8
detail
 62
    16
  6
CONTINUOUS
370
    -2
100
AcDbLine
 10
1.85313626
 20
-5.62288183
 30
0.0
 11
1.85263626
 21
-5.62288183
 31
0.0
  0
LINE
  5
163
100
AcDbEntity
  8
detail
 62
    16
  6
CONTINUOUS
370
    -2
100
AcDbLine
 10
1.85313626
 20
-5.62528683
 30
0.0
 11
1.85263626
 21
-5.62528683
 31
0.0
  0
LINE
  5
164
100
AcDbEntity
  8
detail
 62
    16
  6
CONTINUOUS
370
    -2
100
AcDbLine
 10
1.85313626
 20
-5.62769183
 30
0.0
 11
1.85263626
 21
-5.62769183
 31
0.0
  0
LINE
  5
165
100
AcDbEntity
  8
detail
 62
    16
  6
CONTINUOUS
370
    -2
100
AcDbLine
 10
1.85313626
 20
-5.63009682
 30
0.0
 11
1.85263626
 21
-5.63009682
 31
0.0
  0
LINE
  5
166
100
AcDbEntity
  8
detail
 62
    16
  6
CONTINUOUS
370
    -2
100
AcDbLine
 10
1.85313626
 20
-5.63250182
 30
0.0
 11
1.85263626
 21
-5.63250182
 31
0.0
  0
LINE
  5
167
100
AcDbEntity
  8
detail
 62
    16
  6
CONTINUOUS
370
    -2
100
AcDbLine
 10
1.85313626
 20
-5.63490682
 30
0.0
 11
1.85263626
 21
-5.63490682
 31
0.0
  0
LINE
  5
168
100
AcDbEntity
  8
detail
 62
    16
  6
CONTINUOUS
370
    -2
100
AcDbLine
 10
1.85313626
 20
-5.63731181
 30
0.0
 11
1.85263626
 21
-5.63731181
 31
0.0
  0
LINE
  5
169
100
AcDbEntity
  8
detail
 62
    16
  6
CONTINUOUS
370
    -2
100
AcDbLine
 10
1.85313626
 20
-5.63971681
 30
0.0
 11
1.85263626
 21
-5.63971681
 31
0.0
  0
ENDBLK
  5
16A
100
AcDbEntity
100
AcDbBlockEnd
  0
BLOCK
  5
16B
100
AcDbEntity
  8
detail
100
AcDbBlockBegin
  2
*X10
 70
     1
 10
0.0
 20
0.0
 30
0.0
  3
*X10
  1

  4
Cadwork hatch
  0
LINE
  5
16C
100
AcDbEntity
  8
detail
 62
    16
  6
CONTINUOUS
370
    -2
100
AcDbLine
 10
1.85313626
 20
-5.64186276
 30
0.0
 11
1.85263626
 21
-5.64186276
 31
0.0
  0
LINE
  5
16D
100
AcDbEntity
  8
detail
 62
    16
  6
CONTINUOUS
370
    -2
100
AcDbLine
 10
1.85313626
 20
-5.64355498
 30
0.0
 11
1.85263626
 21
-5.64355498
 31
0.0
  0
LINE
  5
16E
100
AcDbEntity
  8
detail
 62
    16
  6
CONTINUOUS
370
    -2
100
AcDbLine
 10
1.85313626
 20
-5.6452472
 30
0.0
 11
1.85263626
 21
-5.6452472
 31
0.0
  0
LINE
  5
16F
100
AcDbEntity
  8
detail
 62
    16
  6
CONTINUOUS
370
    -2
100
AcDbLine
 10
1.85313626
 20
-5.64693942
 30
0.0
 11
1.85263626
 21
-5.64693942
 31
0.0
  0
LINE
  5
170
100
AcDbEntity
  8
detail
 62
    16
  6
CONTINUOUS
370
    -2
100
AcDbLine
 10
1.85313626
 20
-5.64863164
 30
0.0
 11
1.85263626
 21
-5.64863164
 31
0.0
  0
LINE
  5
171
100
AcDbEntity
  8
detail
 62
    16
  6
CONTINUOUS
370
    -2
100
AcDbLine
 10
1.85313626
 20
-5.65032386
 30
0.0
 11
1.85263626
 21
-5.65032386
 31
0.0
  0
LINE
  5
172
100
AcDbEntity
  8
detail
 62
    16
  6
CONTINUOUS
370
    -2
100
AcDbLine
 10
1.85313626
 20
-5.65201608
 30
0.0
 11
1.85263626
 21
-5.65201608
 31
0.0
  0
LINE
  5
173
100
AcDbEntity
  8
detail
 62
    16
  6
CONTINUOUS
370
    -2
100
AcDbLine
 10
1.85313626
 20
-5.6537083
 30
0.0
 11
1.85263626
 21
-5.6537083
 31
0.0
  0
LINE
  5
174
100
AcDbEntity
  8
detail
 62
    16
  6
CONTINUOUS
370
    -2
100
AcDbLine
 10
1.85313626
 20
-5.65540052
 30
0.0
 11
1.85263626
 21
-5.65540052
 31
0.0
  0
LINE
  5
175
100
AcDbEntity
  8
detail
 62
    16
  6
CONTINUOUS
370
    -2
100
AcDbLine
 10
1.85313626
 20
-5.65709274
 30
0.0
 11
1.85263626
 21
-5.65709274
 31
0.0
  0
LINE
  5
176
100
AcDbEntity
  8
detail
 62
    16
  6
CONTINUOUS
370
    -2
100
AcDbLine
 10
1.85313626
 20
-5.65878496
 30
0.0
 11
1.85263626
 21
-5.65878496
 31
0.0
  0
LINE
  5
177
100
AcDbEntity
  8
detail
 62
    16
  6
CONTINUOUS
370
    -2
100
AcDbLine
 10
1.85313626
 20
-5.66047718
 30
0.0
 11
1.85263626
 21
-5.66047718
 31
0.0
  0
LINE
  5
178
100
AcDbEntity
  8
detail
 62
    16
  6
CONTINUOUS
370
    -2
100
AcDbLine
 10
1.85313626
 20
-5.6621694
 30
0.0
 11
1.85263626
 21
-5.6621694
 31
0.0
  0
LINE
  5
179
100
AcDbEntity
  8
detail
 62
    16
  6
CONTINUOUS
370
    -2
100
AcDbLine
 10
1.85313626
 20
-5.66386162
 30
0.0
 11
1.85263626
 21
-5.66386162
 31
0.0
  0
LINE
  5
17A
100
AcDbEntity
  8
detail
 62
    16
  6
CONTINUOUS
370
    -2
100
AcDbLine
 10
1.85313626
 20
-5.66555384
 30
0.0
 11
1.85263626
 21
-5.66555384
 31
0.0
  0
LINE
  5
17B
100
AcDbEntity
  8
detail
 62
    16
  6
CONTINUOUS
370
    -2
100
AcDbLine
 10
1.85313626
 20
-5.66724606
 30
0.0
 11
1.85263626
 21
-5.66724606
 31
0.0
  0
LINE
  5
17C
100
AcDbEntity
  8
detail
 62
    16
  6
CONTINUOUS
370
    -2
100
AcDbLine
 10
1.85313626
 20
-5.66893828
 30
0.0
 11
1.85263626
 21
-5.66893828
 31
0.0
  0
LINE
  5
17D
100
AcDbEntity
  8
detail
 62
    16
  6
CONTINUOUS
370
    -2
100
AcDbLine
 10
1.85313626
 20
-5.6706305
 30
0.0
 11
1.85263626
 21
-5.6706305
 31
0.0
  0
LINE
  5
17E
100
AcDbEntity
  8
detail
 62
    16
  6
CONTINUOUS
370
    -2
100
AcDbLine
 10
1.85313626
 20
-5.67232273
 30
0.0
 11
1.85263626
 21
-5.67232273
 31
0.0
  0
LINE
  5
17F
100
AcDbEntity
  8
detail
 62
    16
  6
CONTINUOUS
370
    -2
100
AcDbLine
 10
1.85313626
 20
-5.67401495
 30
0.0
 11
1.85263626
 21
-5.67401495
 31
0.0
  0
ENDBLK
  5
180
100
AcDbEntity
100
AcDbBlockEnd
  0
BLOCK
  5
181
100
AcDbEntity
  8
detail
100
AcDbBlockBegin
  2
*X11
 70
     1
 10
0.0
 20
0.0
 30
0.0
  3
*X11
  1

  4
Cadwork hatch
  0
LINE
  5
182
100
AcDbEntity
  8
detail
 62
    16
  6
CONTINUOUS
370
    -2
100
AcDbLine
 10
1.8562264
 20
-5.64186276
 30
0.0
 11
1.8557264
 21
-5.64186276
 31
0.0
  0
LINE
  5
183
100
AcDbEntity
  8
detail
 62
    16
  6
CONTINUOUS
370
    -2
100
AcDbLine
 10
1.8562264
 20
-5.64355498
 30
0.0
 11
1.8557264
 21
-5.64355498
 31
0.0
  0
LINE
  5
184
100
AcDbEntity
  8
detail
 62
    16
  6
CONTINUOUS
370
    -2
100
AcDbLine
 10
1.8562264
 20
-5.6452472
 30
0.0
 11
1.8557264
 21
-5.6452472
 31
0.0
  0
LINE
  5
185
100
AcDbEntity
  8
detail
 62
    16
  6
CONTINUOUS
370
    -2
100
AcDbLine
 10
1.8562264
 20
-5.64693942
 30
0.0
 11
1.8557264
 21
-5.64693942
 31
0.0
  0
LINE
  5
186
100
AcDbEntity
  8
detail
 62
    16
  6
CONTINUOUS
370
    -2
100
AcDbLine
 10
1.8562264
 20
-5.64863164
 30
0.0
 11
1.8557264
 21
-5.64863164
 31
0.0
  0
LINE
  5
187
100
AcDbEntity
  8
detail
 62
    16
  6
CONTINUOUS
370
    -2
100
AcDbLine
 10
1.8562264
 20
-5.65032386
 30
0.0
 11
1.8557264
 21
-5.65032386
 31
0.0
  0
LINE
  5
188
100
AcDbEntity
  8
detail
 62
    16
  6
CONTINUOUS
370
    -2
100
AcDbLine
 10
1.8562264
 20
-5.65201608
 30
0.0
 11
1.8557264
 21
-5.65201608
 31
0.0
  0
LINE
  5
189
100
AcDbEntity
  8
detail
 62
    16
  6
CONTINUOUS
370
    -2
100
AcDbLine
 10
1.8562264
 20
-5.6537083
 30
0.0
 11
1.8557264
 21
-5.6537083
 31
0.0
  0
LINE
  5
18A
100
AcDbEntity
  8
detail
 62
    16
  6
CONTINUOUS
370
    -2
100
AcDbLine
 10
1.8562264
 20
-5.65540052
 30
0.0
 11
1.8557264
 21
-5.65540052
 31
0.0
  0
LINE
  5
18B
100
AcDbEntity
  8
detail
 62
    16
  6
CONTINUOUS
370
    -2
100
AcDbLine
 10
1.8562264
 20
-5.65709274
 30
0.0
 11
1.8557264
 21
-5.65709274
 31
0.0
  0
LINE
  5
18C
100
AcDbEntity
  8
detail
 62
    16
  6
CONTINUOUS
370
    -2
100
AcDbLine
 10
1.8562264
 20
-5.65878496
 30
0.0
 11
1.8557264
 21
-5.65878496
 31
0.0
  0
LINE
  5
18D
100
AcDbEntity
  8
detail
 62
    16
  6
CONTINUOUS
370
    -2
100
AcDbLine
 10
1.8562264
 20
-5.66047718
 30
0.0
 11
1.8557264
 21
-5.66047718
 31
0.0
  0
LINE
  5
18E
100
AcDbEntity
  8
detail
 62
    16
  6
CONTINUOUS
370
    -2
100
AcDbLine
 10
1.8562264
 20
-5.6621694
 30
0.0
 11
1.8557264
 21
-5.6621694
 31
0.0
  0
LINE
  5
18F
100
AcDbEntity
  8
detail
 62
    16
  6
CONTINUOUS
370
    -2
100
AcDbLine
 10
1.8562264
 20
-5.66386162
 30
0.0
 11
1.8557264
 21
-5.66386162
 31
0.0
  0
LINE
  5
190
100
AcDbEntity
  8
detail
 62
    16
  6
CONTINUOUS
370
    -2
100
AcDbLine
 10
1.8562264
 20
-5.66555384
 30
0.0
 11
1.8557264
 21
-5.66555384
 31
0.0
  0
LINE
  5
191
100
AcDbEntity
  8
detail
 62
    16
  6
CONTINUOUS
370
    -2
100
AcDbLine
 10
1.8562264
 20
-5.66724606
 30
0.0
 11
1.8557264
 21
-5.66724606
 31
0.0
  0
LINE
  5
192
100
AcDbEntity
  8
detail
 62
    16
  6
CONTINUOUS
370
    -2
100
AcDbLine
 10
1.8562264
 20
-5.66893828
 30
0.0
 11
1.8557264
 21
-5.66893828
 31
0.0
  0
LINE
  5
193
100
AcDbEntity
  8
detail
 62
    16
  6
CONTINUOUS
370
    -2
100
AcDbLine
 10
1.8562264
 20
-5.6706305
 30
0.0
 11
1.8557264
 21
-5.6706305
 31
0.0
  0
LINE
  5
194
100
AcDbEntity
  8
detail
 62
    16
  6
CONTINUOUS
370
    -2
100
AcDbLine
 10
1.8562264
 20
-5.67232273
 30
0.0
 11
1.8557264
 21
-5.67232273
 31
0.0
  0
LINE
  5
195
100
AcDbEntity
  8
detail
 62
    16
  6
CONTINUOUS
370
    -2
100
AcDbLine
 10
1.8562264
 20
-5.67401495
 30
0.0
 11
1.8557264
 21
-5.67401495
 31
0.0
  0
ENDBLK
  5
196
100
AcDbEntity
100
AcDbBlockEnd
  0
BLOCK
  5
197
100
AcDbEntity
  8
detail
100
AcDbBlockBegin
  2
*X12
 70
     1
 10
0.0
 20
0.0
 30
0.0
  3
*X12
  1

  4
Cadwork hatch
  0
LINE
  5
198
100
AcDbEntity
  8
detail
 62
    16
  6
CONTINUOUS
370
    -2
100
AcDbLine
 10
1.85468133
 20
-5.64186276
 30
0.0
 11
1.85418133
 21
-5.64186276
 31
0.0
  0
LINE
  5
199
100
AcDbEntity
  8
detail
 62
    16
  6
CONTINUOUS
370
    -2
100
AcDbLine
 10
1.85468133
 20
-5.64355498
 30
0.0
 11
1.85418133
 21
-5.64355498
 31
0.0
  0
LINE
  5
19A
100
AcDbEntity
  8
detail
 62
    16
  6
CONTINUOUS
370
    -2
100
AcDbLine
 10
1.85468133
 20
-5.6452472
 30
0.0
 11
1.85418133
 21
-5.6452472
 31
0.0
  0
LINE
  5
19B
100
AcDbEntity
  8
detail
 62
    16
  6
CONTINUOUS
370
    -2
100
AcDbLine
 10
1.85468133
 20
-5.64693942
 30
0.0
 11
1.85418133
 21
-5.64693942
 31
0.0
  0
LINE
  5
19C
100
AcDbEntity
  8
detail
 62
    16
  6
CONTINUOUS
370
    -2
100
AcDbLine
 10
1.85468133
 20
-5.64863164
 30
0.0
 11
1.85418133
 21
-5.64863164
 31
0.0
  0
LINE
  5
19D
100
AcDbEntity
  8
detail
 62
    16
  6
CONTINUOUS
370
    -2
100
AcDbLine
 10
1.85468133
 20
-5.65032386
 30
0.0
 11
1.85418133
 21
-5.65032386
 31
0.0
  0
LINE
  5
19E
100
AcDbEntity
  8
detail
 62
    16
  6
CONTINUOUS
370
    -2
100
AcDbLine
 10
1.85468133
 20
-5.65201608
 30
0.0
 11
1.85418133
 21
-5.65201608
 31
0.0
  0
LINE
  5
19F
100
AcDbEntity
  8
detail
 62
    16
  6
CONTINUOUS
370
    -2
100
AcDbLine
 10
1.85468133
 20
-5.6537083
 30
0.0
 11
1.85418133
 21
-5.6537083
 31
0.0
  0
LINE
  5
1A0
100
AcDbEntity
  8
detail
 62
    16
  6
CONTINUOUS
370
    -2
100
AcDbLine
 10
1.85468133
 20
-5.65540052
 30
0.0
 11
1.85418133
 21
-5.65540052
 31
0.0
  0
LINE
  5
1A1
100
AcDbEntity
  8
detail
 62
    16
  6
CONTINUOUS
370
    -2
100
AcDbLine
 10
1.85468133
 20
-5.65709274
 30
0.0
 11
1.85418133
 21
-5.65709274
 31
0.0
  0
LINE
  5
1A2
100
AcDbEntity
  8
detail
 62
    16
  6
CONTINUOUS
370
    -2
100
AcDbLine
 10
1.85468133
 20
-5.65878496
 30
0.0
 11
1.85418133
 21
-5.65878496
 31
0.0
  0
LINE
  5
1A3
100
AcDbEntity
  8
detail
 62
    16
  6
CONTINUOUS
370
    -2
100
AcDbLine
 10
1.85468133
 20
-5.66047718
 30
0.0
 11
1.85418133
 21
-5.66047718
 31
0.0
  0
LINE
  5
1A4
100
AcDbEntity
  8
detail
 62
    16
  6
CONTINUOUS
370
    -2
100
AcDbLine
 10
1.85468133
 20
-5.6621694
 30
0.0
 11
1.85418133
 21
-5.6621694
 31
0.0
  0
LINE
  5
1A5
100
AcDbEntity
  8
detail
 62
    16
  6
CONTINUOUS
370
    -2
100
AcDbLine
 10
1.85468133
 20
-5.66386162
 30
0.0
 11
1.85418133
 21
-5.66386162
 31
0.0
  0
LINE
  5
1A6
100
AcDbEntity
  8
detail
 62
    16
  6
CONTINUOUS
370
    -2
100
AcDbLine
 10
1.85468133
 20
-5.66555384
 30
0.0
 11
1.85418133
 21
-5.66555384
 31
0.0
  0
LINE
  5
1A7
100
AcDbEntity
  8
detail
 62
    16
  6
CONTINUOUS
370
    -2
100
AcDbLine
 10
1.85468133
 20
-5.66724606
 30
0.0
 11
1.85418133
 21
-5.66724606
 31
0.0
  0
LINE
  5
1A8
100
AcDbEntity
  8
detail
 62
    16
  6
CONTINUOUS
370
    -2
100
AcDbLine
 10
1.85468133
 20
-5.66893828
 30
0.0
 11
1.85418133
 21
-5.66893828
 31
0.0
  0
LINE
  5
1A9
100
AcDbEntity
  8
detail
 62
    16
  6
CONTINUOUS
370
    -2
100
AcDbLine
 10
1.85468133
 20
-5.6706305
 30
0.0
 11
1.85418133
 21
-5.6706305
 31
0.0
  0
LINE
  5
1AA
100
AcDbEntity
  8
detail
 62
    16
  6
CONTINUOUS
370
    -2
100
AcDbLine
 10
1.85468133
 20
-5.67232273
 30
0.0
 11
1.85418133
 21
-5.67232273
 31
0.0
  0
LINE
  5
1AB
100
AcDbEntity
  8
detail
 62
    16
  6
CONTINUOUS
370
    -2
100
AcDbLine
 10
1.85468133
 20
-5.67401495
 30
0.0
 11
1.85418133
 21
-5.67401495
 31
0.0
  0
ENDBLK
  5
1AC
100
AcDbEntity
100
AcDbBlockEnd
  0
BLOCK
  5
1AD
100
AcDbEntity
  8
detail
100
AcDbBlockBegin
  2
*D1
 70
     1
 10
0.0
 20
0.0
 30
0.0
  3
*D1
  1

  4
Cadwork dimension
  0
TEXT
  5
1AE
100
AcDbEntity
  8
detail
 62
   160
370
    18
100
AcDbText
 10
1.83916832
 20
-5.61224018
 30
0.0
 40
0.0016
  1
180
  7
FRUTIGER_55_ROMAN
 50
0.0
 41
0.94
 51
0.0
100
AcDbText
  0
LINE
  5
1AF
100
AcDbEntity
  8
detail
 62
   160
370
    -2
100
AcDbLine
 10
1.8313264
 20
-5.61524018
 30
0.0
 11
1.8313264
 21
-5.60824018
 31
0.0
  0
LINE
  5
1B0
100
AcDbEntity
  8
detail
 62
   160
370
    -2
100
AcDbLine
 10
1.8493264
 20
-5.61524018
 30
0.0
 11
1.8493264
 21
-5.60824018
 31
0.0
  0
LINE
  5
1B1
100
AcDbEntity
  8
detail
 62
   160
370
    -2
100
AcDbLine
 10
1.8293264
 20
-5.61324018
 30
0.0
 11
1.8513264
 21
-5.61324018
 31
0.0
  0
LINE
  5
1B2
100
AcDbEntity
  8
detail
 62
   160
370
    -2
100
AcDbLine
 10
1.8303264
 20
-5.61424018
 30
0.0
 11
1.8323264
 21
-5.61224018
 31
0.0
  0
LINE
  5
1B3
100
AcDbEntity
  8
detail
 62
   160
370
    -2
100
AcDbLine
 10
1.8483264
 20
-5.61424018
 30
0.0
 11
1.8503264
 21
-5.61224018
 31
0.0
  0
ENDBLK
  5
1B4
100
AcDbEntity
100
AcDbBlockEnd
  0
BLOCK
  5
1B5
100
AcDbEntity
  8
detail
100
AcDbBlockBegin
  2
*D2
 70
     1
 10
0.0
 20
0.0
 30
0.0
  3
*D2
  1

  4
Cadwork dimension
  0
TEXT
  5
1B6
100
AcDbEntity
  8
detail
 62
   160
370
    18
100
AcDbText
 10
1.86902331
 20
-5.58122471
 30
0.0
 40
0.0016
  1
220 / 260
  7
FRUTIGER_55_ROMAN
 50
89.9999975
 41
0.94
 51
0.0
100
AcDbText
  0
LINE
  5
1B7
100
AcDbEntity
  8
detail
 62
   160
370
    -2
100
AcDbLine
 10
1.87202331
 20
-5.56323166
 30
0.0
 11
1.86502331
 21
-5.56323166
 31
0.0
  0
LINE
  5
1B8
100
AcDbEntity
  8
detail
 62
   160
370
    -2
100
AcDbLine
 10
1.87202331
 20
-5.58923166
 30
0.0
 11
1.84834461
 21
-5.58923166
 31
0.0
  0
LINE
  5
1B9
100
AcDbEntity
  8
detail
 62
   160
370
    -2
100
AcDbLine
 10
1.87002331
 20
-5.56123166
 30
0.0
 11
1.87002331
 21
-5.59123166
 31
0.0
  0
LINE
  5
1BA
100
AcDbEntity
  8
detail
 62
   160
370
    -2
100
AcDbLine
 10
1.86902331
 20
-5.56223166
 30
0.0
 11
1.87102331
 21
-5.56423166
 31
0.0
  0
LINE
  5
1BB
100
AcDbEntity
  8
detail
 62
   160
370
    -2
100
AcDbLine
 10
1.86902331
 20
-5.58823166
 30
0.0
 11
1.87102331
 21
-5.59023166
 31
0.0
  0
ENDBLK
  5
1BC
100
AcDbEntity
100
AcDbBlockEnd
  0
BLOCK
  5
1BD
100
AcDbEntity
  8
detail
100
AcDbBlockBegin
  2
*D3
 70
     1
 10
0.0
 20
0.0
 30
0.0
  3
*D3
  1

  4
Cadwork dimension
  0
TEXT
  5
1BE
100
AcDbEntity
  8
detail
 62
   160
370
    18
100
AcDbText
 10
1.86902331
 20
-5.55962454
 30
0.0
 40
0.0016
  1
90
  7
FRUTIGER_55_ROMAN
 50
89.9999975
 41
0.94
 51
0.0
100
AcDbText
  0
LINE
  5
1BF
100
AcDbEntity
  8
detail
 62
   160
370
    -2
100
AcDbLine
 10
1.87202331
 20
-5.55423166
 30
0.0
 11
1.85331214
 21
-5.55423166
 31
0.0
  0
LINE
  5
1C0
100
AcDbEntity
  8
detail
 62
   160
370
    -2
100
AcDbLine
 10
1.87202331
 20
-5.56323166
 30
0.0
 11
1.85331214
 21
-5.56323166
 31
0.0
  0
LINE
  5
1C1
100
AcDbEntity
  8
detail
 62
   160
370
    -2
100
AcDbLine
 10
1.87002331
 20
-5.55223166
 30
0.0
 11
1.87002331
 21
-5.56523166
 31
0.0
  0
LINE
  5
1C2
100
AcDbEntity
  8
detail
 62
   160
370
    -2
100
AcDbLine
 10
1.86902331
 20
-5.55323166
 30
0.0
 11
1.87102331
 21
-5.55523166
 31
0.0
  0
LINE
  5
1C3
100
AcDbEntity
  8
detail
 62
   160
370
    -2
100
AcDbLine
 10
1.86902331
 20
-5.56223166
 30
0.0
 11
1.87102331
 21
-5.56423166
 31
0.0
  0
ENDBLK
  5
1C4
100
AcDbEntity
100
AcDbBlockEnd
  0
BLOCK
  5
1C5
100
AcDbEntity
  8
detail
100
AcDbBlockBegin
  2
*D4
 70
     1
 10
0.0
 20
0.0
 30
0.0
  3
*D4
  1

  4
Cadwork dimension
  0
TEXT
  5
1C6
100
AcDbEntity
  8
detail
 62
   160
370
    18
100
AcDbText
 10
1.80495176
 20
-5.57912846
 30
0.0
 40
0.0016
  1
100
  7
FRUTIGER_55_ROMAN
 50
89.9999975
 41
0.94
 51
0.0
100
AcDbText
  0
LINE
  5
1C7
100
AcDbEntity
  8
detail
 62
   160
370
    -2
100
AcDbLine
 10
1.80395176
 20
-5.57311227
 30
0.0
 11
1.82696787
 21
-5.57311227
 31
0.0
  0
LINE
  5
1C8
100
AcDbEntity
  8
detail
 62
   160
370
    -2
100
AcDbLine
 10
1.80395176
 20
-5.58313295
 30
0.0
 11
1.82696787
 21
-5.58313295
 31
0.0
  0
LINE
  5
1C9
100
AcDbEntity
  8
detail
 62
   160
370
    -2
100
AcDbLine
 10
1.80595176
 20
-5.57111227
 30
0.0
 11
1.80595176
 21
-5.58513295
 31
0.0
  0
LINE
  5
1CA
100
AcDbEntity
  8
detail
 62
   160
370
    -2
100
AcDbLine
 10
1.80495176
 20
-5.57211227
 30
0.0
 11
1.80695176
 21
-5.57411227
 31
0.0
  0
LINE
  5
1CB
100
AcDbEntity
  8
detail
 62
   160
370
    -2
100
AcDbLine
 10
1.80495176
 20
-5.58213295
 30
0.0
 11
1.80695176
 21
-5.58413295
 31
0.0
  0
ENDBLK
  5
1CC
100
AcDbEntity
100
AcDbBlockEnd
  0
BLOCK
  5
1CD
100
AcDbEntity
  8
detail
100
AcDbBlockBegin
  2
*D5
 70
     1
 10
0.0
 20
0.0
 30
0.0
  3
*D5
  1

  4
Cadwork dimension
  0
TEXT
  5
1CE
100
AcDbEntity
  8
detail
 62
   160
370
    18
100
AcDbText
 10
1.80495176
 20
-5.56555935
 30
0.0
 40
0.0016
  1
var
  7
FRUTIGER_55_ROMAN
 50
89.9999975
 41
0.94
 51
0.0
100
AcDbText
  0
LINE
  5
1CF
100
AcDbEntity
  8
detail
 62
   160
370
    -2
100
AcDbLine
 10
1.80395176
 20
-5.56323166
 30
0.0
 11
1.82696787
 21
-5.56323166
 31
0.0
  0
LINE
  5
1D0
100
AcDbEntity
  8
detail
 62
   160
370
    -2
100
AcDbLine
 10
1.80395176
 20
-5.56458012
 30
0.0
 11
1.82696787
 21
-5.56458012
 31
0.0
  0
LINE
  5
1D1
100
AcDbEntity
  8
detail
 62
   160
370
    -2
100
AcDbLine
 10
1.80595176
 20
-5.56123166
 30
0.0
 11
1.80595176
 21
-5.56658012
 31
0.0
  0
LINE
  5
1D2
100
AcDbEntity
  8
detail
 62
   160
370
    -2
100
AcDbLine
 10
1.80495176
 20
-5.56223166
 30
0.0
 11
1.80695176
 21
-5.56423166
 31
0.0
  0
LINE
  5
1D3
100
AcDbEntity
  8
detail
 62
   160
370
    -2
100
AcDbLine
 10
1.80495176
 20
-5.56358012
 30
0.0
 11
1.80695176
 21
-5.56558012
 31
0.0
  0
ENDBLK
  5
1D4
100
AcDbEntity
100
AcDbBlockEnd
  0
BLOCK
  5
1D5
100
AcDbEntity
  8
detail
100
AcDbBlockBegin
  2
*D6
 70
     1
 10
0.0
 20
0.0
 30
0.0
  3
*D6
  1

  4
Cadwork dimension
  0
TEXT
  5
1D6
100
AcDbEntity
  8
detail
 62
   160
370
    18
100
AcDbText
 10
1.80495176
 20
-5.56978735
 30
0.0
 40
0.0016
  1
84
  7
FRUTIGER_55_ROMAN
 50
89.9999975
 41
0.94
 51
0.0
100
AcDbText
  0
LINE
  5
1D7
100
AcDbEntity
  8
detail
 62
   160
370
    -2
100
AcDbLine
 10
1.80395176
 20
-5.56458012
 30
0.0
 11
1.82696787
 21
-5.56458012
 31
0.0
  0
LINE
  5
1D8
100
AcDbEntity
  8
detail
 62
   160
370
    -2
100
AcDbLine
 10
1.80395176
 20
-5.57311227
 30
0.0
 11
1.81095176
 21
-5.57311227
 31
0.0
  0
LINE
  5
1D9
100
AcDbEntity
  8
detail
 62
   160
370
    -2
100
AcDbLine
 10
1.80595176
 20
-5.56258012
 30
0.0
 11
1.80595176
 21
-5.57511227
 31
0.0
  0
LINE
  5
1DA
100
AcDbEntity
  8
detail
 62
   160
370
    -2
100
AcDbLine
 10
1.80495176
 20
-5.56358012
 30
0.0
 11
1.80695176
 21
-5.56558012
 31
0.0
  0
LINE
  5
1DB
100
AcDbEntity
  8
detail
 62
   160
370
    -2
100
AcDbLine
 10
1.80495176
 20
-5.57211227
 30
0.0
 11
1.80695176
 21
-5.57411227
 31
0.0
  0
ENDBLK
  5
1DC
100
AcDbEntity
100
AcDbBlockEnd
  0
BLOCK
  5
1DD
100
AcDbEntity
  8
detail
100
AcDbBlockBegin
  2
*D7
 70
     1
 10
0.0
 20
0.0
 30
0.0
  3
*D7
  1

  4
Cadwork dimension
  0
TEXT
  5
1DE
100
AcDbEntity
  8
detail
 62
   160
370
    18
100
AcDbText
 10
1.82566063
 20
-5.60582357
 30
0.0
 40
0.0016
  1
var.
  7
FRUTIGER_55_ROMAN
 50
0.0
 41
0.94
 51
0.0
100
AcDbText
  0
LINE
  5
1DF
100
AcDbEntity
  8
detail
 62
   160
370
    -2
100
AcDbLine
 10
1.8223264
 20
-5.60882357
 30
0.0
 11
1.8223264
 21
-5.59323835
 31
0.0
  0
LINE
  5
1E0
100
AcDbEntity
  8
detail
 62
   160
370
    -2
100
AcDbLine
 10
1.8313264
 20
-5.60882357
 30
0.0
 11
1.8313264
 21
-5.59323835
 31
0.0
  0
LINE
  5
1E1
100
AcDbEntity
  8
detail
 62
   160
370
    -2
100
AcDbLine
 10
1.8203264
 20
-5.60682357
 30
0.0
 11
1.8333264
 21
-5.60682357
 31
0.0
  0
LINE
  5
1E2
100
AcDbEntity
  8
detail
 62
   160
370
    -2
100
AcDbLine
 10
1.8213264
 20
-5.60782357
 30
0.0
 11
1.8233264
 21
-5.60582357
 31
0.0
  0
LINE
  5
1E3
100
AcDbEntity
  8
detail
 62
   160
370
    -2
100
AcDbLine
 10
1.8303264
 20
-5.60782357
 30
0.0
 11
1.8323264
 21
-5.60582357
 31
0.0
  0
ENDBLK
  5
1E4
100
AcDbEntity
100
AcDbBlockEnd
  0
BLOCK
  5
1E5
100
AcDbEntity
  8
detail
100
AcDbBlockBegin
  2
*D8
 70
     1
 10
0.0
 20
0.0
 30
0.0
  3
*D8
  1

  4
Cadwork dimension
  0
TEXT
  5
1E6
100
AcDbEntity
  8
detail
 62
   160
370
    18
100
AcDbText
 10
1.84334431
 20
-5.60582357
 30
0.0
 40
0.0016
  1
var.
  7
FRUTIGER_55_ROMAN
 50
0.0
 41
0.94
 51
0.0
100
AcDbText
  0
LINE
  5
1E7
100
AcDbEntity
  8
detail
 62
   160
370
    -2
100
AcDbLine
 10
1.83967837
 20
-5.60882357
 30
0.0
 11
1.83967837
 21
-5.58213753
 31
0.0
  0
LINE
  5
1E8
100
AcDbEntity
  8
detail
 62
   160
370
    -2
100
AcDbLine
 10
1.8493264
 20
-5.60882357
 30
0.0
 11
1.8493264
 21
-5.59323835
 31
0.0
  0
LINE
  5
1E9
100
AcDbEntity
  8
detail
 62
   160
370
    -2
100
AcDbLine
 10
1.83767837
 20
-5.60682357
 30
0.0
 11
1.8513264
 21
-5.60682357
 31
0.0
  0
LINE
  5
1EA
100
AcDbEntity
  8
detail
 62
   160
370
    -2
100
AcDbLine
 10
1.83867837
 20
-5.60782357
 30
0.0
 11
1.84067837
 21
-5.60582357
 31
0.0
  0
LINE
  5
1EB
100
AcDbEntity
  8
detail
 62
   160
370
    -2
100
AcDbLine
 10
1.8483264
 20
-5.60782357
 30
0.0
 11
1.8503264
 21
-5.60582357
 31
0.0
  0
ENDBLK
  5
1EC
100
AcDbEntity
100
AcDbBlockEnd
  0
BLOCK
  5
1ED
100
AcDbEntity
  8
detail
100
AcDbBlockBegin
  2
*D9
 70
     1
 10
0.0
 20
0.0
 30
0.0
  3
*D9
  1

  4
Cadwork dimension
  0
TEXT
  5
1EE
100
AcDbEntity
  8
detail
 62
   160
370
    18
100
AcDbText
 10
1.83421763
 20
-5.60584727
 30
0.0
 40
0.0016
  1
var.
  7
FRUTIGER_55_ROMAN
 50
0.0
 41
0.94
 51
0.0
100
AcDbText
  0
LINE
  5
1EF
100
AcDbEntity
  8
detail
 62
   160
370
    -2
100
AcDbLine
 10
1.8313264
 20
-5.60882357
 30
0.0
 11
1.8313264
 21
-5.59323835
 31
0.0
  0
LINE
  5
1F0
100
AcDbEntity
  8
detail
 62
   160
370
    -2
100
AcDbLine
 10
1.83967837
 20
-5.60882357
 30
0.0
 11
1.83967837
 21
-5.58213753
 31
0.0
  0
LINE
  5
1F1
100
AcDbEntity
  8
detail
 62
   160
370
    -2
100
AcDbLine
 10
1.8293264
 20
-5.60682357
 30
0.0
 11
1.84167837
 21
-5.60682357
 31
0.0
  0
LINE
  5
1F2
100
AcDbEntity
  8
detail
 62
   160
370
    -2
100
AcDbLine
 10
1.8303264
 20
-5.60782357
 30
0.0
 11
1.8323264
 21
-5.60582357
 31
0.0
  0
LINE
  5
1F3
100
AcDbEntity
  8
detail
 62
   160
370
    -2
100
AcDbLine
 10
1.83867837
 20
-5.60782357
 30
0.0
 11
1.84067837
 21
-5.60582357
 31
0.0
  0
ENDBLK
  5
1F4
100
AcDbEntity
100
AcDbBlockEnd
  0
BLOCK
  5
1F5
100
AcDbEntity
  8
detail
100
AcDbBlockBegin
  2
*D10
 70
     1
 10
0.0
 20
0.0
 30
0.0
  3
*D10
  1

  4
Cadwork dimension
  0
TEXT
  5
1F6
100
AcDbEntity
  8
detail
 62
   160
370
    18
100
AcDbText
 10
1.82858024
 20
-5.65954225
 30
0.0
 40
0.0016
  1
23
  7
FRUTIGER_55_ROMAN
 50
0.0
 41
0.94
 51
0.0
100
AcDbText
  0
LINE
  5
1F7
100
AcDbEntity
  8
detail
 62
   160
370
    -2
100
AcDbLine
 10
1.8313264
 20
-5.66254225
 30
0.0
 11
1.8313264
 21
-5.65554225
 31
0.0
  0
LINE
  5
1F8
100
AcDbEntity
  8
detail
 62
   160
370
    -2
100
AcDbLine
 10
1.8334264
 20
-5.66254225
 30
0.0
 11
1.8334264
 21
-5.65554225
 31
0.0
  0
LINE
  5
1F9
100
AcDbEntity
  8
detail
 62
   160
370
    -2
100
AcDbLine
 10
1.8293264
 20
-5.66054225
 30
0.0
 11
1.8354264
 21
-5.66054225
 31
0.0
  0
LINE
  5
1FA
100
AcDbEntity
  8
detail
 62
   160
370
    -2
100
AcDbLine
 10
1.8303264
 20
-5.66154225
 30
0.0
 11
1.8323264
 21
-5.65954225
 31
0.0
  0
LINE
  5
1FB
100
AcDbEntity
  8
detail
 62
   160
370
    -2
100
AcDbLine
 10
1.8324264
 20
-5.66154225
 30
0.0
 11
1.8344264
 21
-5.65954225
 31
0.0
  0
ENDBLK
  5
1FC
100
AcDbEntity
100
AcDbBlockEnd
  0
ENDSEC
  0
SECTION
  2
ENTITIES
  0
INSERT
  5
1FD
100
AcDbEntity
  8
detail
 62
     0
370
     5
100
AcDbBlockReference
  2
*X1
 10
0.0
 20
0.0
 30
0.0
  0
INSERT
  5
1FE
100
AcDbEntity
  8
detail
 62
     0
370
     5
100
AcDbBlockReference
  2
*X2
 10
0.0
 20
0.0
 30
0.0
  0
INSERT
  5
1FF
100
AcDbEntity
  8
detail
 62
     0
370
     5
100
AcDbBlockReference
  2
*X3
 10
0.0
 20
0.0
 30
0.0
  0
INSERT
  5
200
100
AcDbEntity
  8
detail
 62
     0
370
     5
100
AcDbBlockReference
  2
*X4
 10
0.0
 20
0.0
 30
0.0
  0
INSERT
  5
201
100
AcDbEntity
  8
detail
 62
     0
370
     5
100
AcDbBlockReference
  2
*X5
 10
0.0
 20
0.0
 30
0.0
  0
INSERT
  5
202
100
AcDbEntity
  8
detail
 62
     0
370
     5
100
AcDbBlockReference
  2
*X6
 10
0.0
 20
0.0
 30
0.0
  0
INSERT
  5
203
100
AcDbEntity
  8
detail
 62
     0
370
     5
100
AcDbBlockReference
  2
*X7
 10
0.0
 20
0.0
 30
0.0
  0
INSERT
  5
204
100
AcDbEntity
  8
detail
 62
     0
370
     5
100
AcDbBlockReference
  2
*X8
 10
0.0
 20
0.0
 30
0.0
  0
INSERT
  5
205
100
AcDbEntity
  8
detail
 62
     0
370
     5
100
AcDbBlockReference
  2
*X9
 10
0.0
 20
0.0
 30
0.0
  0
INSERT
  5
206
100
AcDbEntity
  8
detail
 62
     0
370
     5
100
AcDbBlockReference
  2
*X10
 10
0.0
 20
0.0
 30
0.0
  0
INSERT
  5
207
100
AcDbEntity
  8
detail
 62
     0
370
     5
100
AcDbBlockReference
  2
*X11
 10
0.0
 20
0.0
 30
0.0
  0
INSERT
  5
208
100
AcDbEntity
  8
detail
 62
     0
370
     5
100
AcDbBlockReference
  2
*X12
 10
0.0
 20
0.0
 30
0.0
  0
LINE
  5
209
100
AcDbEntity
  8
detail
 62
     7
  6
CONTINUOUS
370
     5
100
AcDbLine
 10
1.8553264
 20
-5.50923166
 30
0.0
 11
1.8553264
 21
-5.49851047
 31
0.0
  0
LWPOLYLINE
  5
20A
100
AcDbEntity
  8
detail
 62
     7
  6
CONTINUOUS
370
     5
100
AcDbPolyline
 90
        3
 70
     0
 43
0.0
 10
1.8403264
 20
-5.49851047
 10
1.8403264
 20
-5.50923166
 10
1.8553264
 20
-5.50923166
  0
LWPOLYLINE
  5
20B
100
AcDbEntity
  8
detail
 62
   250
  6
CONTINUOUS
370
     5
100
AcDbPolyline
 90
        4
 70
     0
 43
0.0
 10
1.8403264
 20
-5.55423166
 10
1.8403264
 20
-5.56323166
 10
1.8493264
 20
-5.56323166
 10
1.8493264
 20
-5.55423166
  0
LWPOLYLINE
  5
20C
100
AcDbEntity
  8
detail
 62
   250
  6
CONTINUOUS
370
     5
100
AcDbPolyline
 90
        7
 70
     1
 43
0.0
 10
1.8223264
 20
-5.49851047
 10
1.8223264
 20
-5.56323166
 10
1.8403264
 20
-5.56323166
 10
1.8403264
 20
-5.55423166
 10
1.8403264
 20
-5.55423166
 10
1.8403264
 20
-5.55423166
 10
1.8403264
 20
-5.55423166
  0
LWPOLYLINE
  5
20D
102
{ACAD_REACTORS
330
20E
102
}
100
AcDbEntity
  8
detail
 62
     7
  6
CONTINUOUS
370
     5
100
AcDbPolyline
 90
        4
 70
     1
 43
0.0
 10
1.8553264
 20
-5.52923166
 10
1.8553264
 20
-5.51023166
 10
1.8403264
 20
-5.51023166
 10
1.8403264
 20
-5.52923166
  0
HATCH
  5
20E
100
AcDbEntity
  8
detail
 62
    16
  6
CONTINUOUS
100
AcDbHatch
 10
0.0
 20
0.0
 30
0.0
210
0.0
220
0.0
230
1.0
  2
ANSI31
 70
     0
 71
     1
 91
        1
 92
        7
 72
     0
 73
     1
 93
        4
 10
1.8553264
 20
-5.52923166
 10
1.8553264
 20
-5.51023166
 10
1.8403264
 20
-5.51023166
 10
1.8403264
 20
-5.52923166
 97
        1
330
20D
 75
     0
 76
     2
 52
0.0
 41
0.00157481
 77
     0
 78
     1
 53
45.0
 43
0.0
 44
0.0
 45
0.00353553
 46
-0.00353553
 79
     0
 47
0.775229
 98
        1
 10
0.0
 20
0.0
  0
3DFACE
  5
20F
100
AcDbEntity
  8
detail
 62
    16
  6
CONTINUOUS
370
     5
100
AcDbFace
 70
     4
 10
1.8573264
 20
-5.53023166
 30
0.25
 11
1.8573264
 21
-5.52623166
 31
0.25
 12
1.9307099
 22
-5.52623166
 32
0.25
 13
1.9307099
 23
-5.53023166
 33
0.25
  0
3DFACE
  5
210
102
{ACAD_REACTORS
330
211
102
}
100
AcDbEntity
  8
detail
 62
    16
  6
CONTINUOUS
370
     5
100
AcDbFace
 70
     0
 10
1.8573264
 20
-5.51823166
 30
0.25
 11
1.8553264
 21
-5.51823166
 31
0.25
 12
1.8553264
 22
-5.53023166
 32
0.25
 13
1.8573264
 23
-5.53023166
 33
0.25
  0
HATCH
  5
211
100
AcDbEntity
  8
detail
 62
    16
  6
CONTINUOUS
100
AcDbHatch
 10
0.0
 20
0.0
 30
0.0
210
0.0
220
0.0
230
1.0
  2
ANSI31
 70
     0
 71
     1
 91
        1
 92
        7
 72
     0
 73
     1
 93
        4
 10
1.8573264
 20
-5.51823166
 10
1.8553264
 20
-5.51823166
 10
1.8553264
 20
-5.53023166
 10
1.8573264
 20
-5.53023166
 97
        1
330
210
 75
     0
 76
     2
 52
135.0
 41
0.0003937
 77
     0
 78
     1
 53
0.0
 43
0.0
 44
0.000625
 45
0.0
 46
0.00125
 79
     0
 47
0.775229
 98
        1
 10
0.0
 20
0.0
  0
LINE
  5
212
100
AcDbEntity
  8
detail
 62
    16
  6
CONTINUOUS
370
     5
100
AcDbLine
 10
1.8568264
 20
-5.51723166
 30
0.25
 11
1.9307099
 21
-5.51723166
 31
0.25
  0
LINE
  5
213
100
AcDbEntity
  8
detail
 62
    16
  6
CONTINUOUS
370
     5
100
AcDbLine
 10
1.8568264
 20
-5.51823166
 30
0.25
 11
1.8568264
 21
-5.49851047
 31
0.25
  0
LWPOLYLINE
  5
214
100
AcDbEntity
  8
detail
 62
    16
  6
CONTINUOUS
370
     5
100
AcDbPolyline
 90
        4
 70
     0
 43
0.0
 38
0.25
 10
1.9307099
 20
-5.51823166
 10
1.8573264
 20
-5.51823166
 10
1.8573264
 20
-5.52623166
 10
1.9307099
 20
-5.52623166
  0
LINE
  5
215
100
AcDbEntity
  8
detail
 62
     7
  6
CONTINUOUS
370
     5
100
AcDbLine
 10
1.9307099
 20
-5.53023166
 30
0.25
 11
1.8403264
 21
-5.53023166
 31
0.25
  0
LWPOLYLINE
  5
216
100
AcDbEntity
  8
detail
 62
     7
  6
CONTINUOUS
370
     5
100
AcDbPolyline
 90
        3
 70
     0
 43
0.0
 38
0.25
 10
1.8403264
 20
-5.53023166
 10
1.8403264
 20
-5.53023166
 10
1.8403264
 20
-5.55423166
  0
LINE
  5
217
100
AcDbEntity
  8
detail
 62
     7
  6
CONTINUOUS
370
     5
100
AcDbLine
 10
1.8403264
 20
-5.55423166
 30
0.25
 11
1.9307099
 21
-5.55423166
 31
0.25
  0
LINE
  5
218
100
AcDbEntity
  8
detail
 62
     7
  6
CONTINUOUS
370
     5
100
AcDbLine
 10
1.8553264
 20
-5.50923166
 30
0.0
 11
1.8553264
 21
-5.49851047
 31
0.0
  0
LWPOLYLINE
  5
219
100
AcDbEntity
  8
detail
 62
     7
  6
CONTINUOUS
370
     5
100
AcDbPolyline
 90
        3
 70
     0
 43
0.0
 10
1.8403264
 20
-5.49851047
 10
1.8403264
 20
-5.50923166
 10
1.8553264
 20
-5.50923166
  0
LINE
  5
21A
100
AcDbEntity
  8
detail
 62
    16
  6
CONTINUOUS
370
     5
100
AcDbLine
 10
1.8223264
 20
-5.56323166
 30
0.0
 11
1.8223264
 21
-5.49851047
 31
0.0
  0
LINE
  5
21B
100
AcDbEntity
  8
detail
 62
    16
  6
CONTINUOUS
370
     5
100
AcDbLine
 10
1.8403264
 20
-5.56323166
 30
0.25
 11
1.8493264
 21
-5.56323166
 31
0.25
  0
3DFACE
  5
21C
100
AcDbEntity
  8
detail
 62
    16
  6
CONTINUOUS
370
     5
100
AcDbFace
 70
    18
 10
1.8557264
 20
-5.592513
 30
0.25
 11
1.8557264
 21
-5.64061293
 31
0.25
 12
1.8562264
 22
-5.64061293
 32
0.25
 13
1.8562264
 23
-5.592513
 33
0.25
  0
LWPOLYLINE
  5
21D
100
AcDbEntity
  8
detail
 62
    16
  6
CONTINUOUS
370
     5
100
AcDbPolyline
 90
        5
 70
     0
 43
0.0
 38
0.25
 10
1.85313626
 20
-5.592513
 10
1.85418133
 20
-5.592513
 10
1.85418133
 20
-5.5933268
 10
1.85313626
 20
-5.5933268
 10
1.85313626
 20
-5.592513
  0
3DFACE
  5
21E
100
AcDbEntity
  8
detail
 62
    16
  6
CONTINUOUS
370
     5
100
AcDbFace
 70
    18
 10
1.85418133
 20
-5.592513
 30
0.25
 11
1.85418133
 21
-5.64061293
 31
0.25
 12
1.85468133
 22
-5.64061293
 32
0.25
 13
1.85468133
 23
-5.592513
 33
0.25
  0
LWPOLYLINE
  5
21F
100
AcDbEntity
  8
detail
 62
    16
  6
CONTINUOUS
370
     5
100
AcDbPolyline
 90
        5
 70
     0
 43
0.0
 38
0.25
 10
1.85468133
 20
-5.592513
 10
1.8557264
 20
-5.592513
 10
1.8557264
 20
-5.5933268
 10
1.85468133
 20
-5.5933268
 10
1.85468133
 20
-5.592513
  0
LWPOLYLINE
  5
220
100
AcDbEntity
  8
detail
 62
    16
  6
CONTINUOUS
370
     5
100
AcDbPolyline
 90
        5
 70
     0
 43
0.0
 38
0.25
 10
1.85263626
 20
-5.592113
 10
1.8562264
 20
-5.592113
 10
1.8562264
 20
-5.592513
 10
1.85263626
 20
-5.592513
 10
1.85263626
 20
-5.592113
  0
LINE
  5
221
100
AcDbEntity
  8
detail
 62
    16
  6
CONTINUOUS
370
     5
100
AcDbLine
 10
1.8579264
 20
-5.593413
 30
0.0
 11
1.8579264
 21
-5.64061293
 31
0.0
  0
LINE
  5
222
100
AcDbEntity
  8
detail
 62
    16
  6
CONTINUOUS
370
     5
100
AcDbLine
 10
1.8501764
 20
-5.593413
 30
0.0
 11
1.8501764
 21
-5.64061293
 31
0.0
  0
LWPOLYLINE
  5
223
100
AcDbEntity
  8
detail
 62
    16
  6
CONTINUOUS
370
     5
100
AcDbPolyline
 90
       10
 70
     1
 43
0.0
 10
1.8563264
 20
-5.55423166
 10
1.8563264
 20
-5.587513
 10
1.85154154
 20
-5.587513
 10
1.8513106
 20
-5.587913
 10
1.8505264
 20
-5.587913
 10
1.8505264
 20
-5.587963
 10
1.8505264
 20
-5.590513
 10
1.8503764
 20
-5.590513
 10
1.8493264
 20
-5.59023166
 10
1.8493264
 20
-5.55423166
  0
LWPOLYLINE
  5
224
100
AcDbEntity
  8
detail
 62
    16
  6
CONTINUOUS
370
     5
100
AcDbPolyline
 90
        5
 70
     1
 43
0.0
 10
1.8523764
 20
-5.588713
 10
1.8523764
 20
-5.587513
 10
1.85198616
 20
-5.587513
 10
1.85198616
 20
-5.58921969
 10
1.8523764
 20
-5.58921969
  0
LWPOLYLINE
  5
225
100
AcDbEntity
  8
detail
 62
    16
  6
CONTINUOUS
370
     5
100
AcDbPolyline
 90
       24
 70
     1
 43
0.0
 10
1.8523764
 20
-5.588713
 10
1.8546064
 20
-5.588713
 10
1.8546064
 20
-5.589933
 10
1.8547064
 20
-5.589933
 10
1.8562464
 20
-5.589933
 10
1.8562464
 20
-5.588713
 10
1.8566264
 20
-5.588713
 10
1.8566264
 20
-5.58670747
 10
1.8580264
 20
-5.58685462
 10
1.8580264
 20
-5.592113
 10
1.8579264
 20
-5.592113
 10
1.8579264
 20
-5.593413
 10
1.8577916
 20
-5.59345949
 10
1.8564764
 20
-5.593913
 10
1.8564764
 20
-5.592113
 10
1.85222227
 20
-5.592113
 10
1.85222227
 20
-5.593913
 10
1.8520764
 20
-5.593913
 10
1.8501764
 20
-5.5934039
 10
1.8501764
 20
-5.59133358
 10
1.8506264
 20
-5.591213
 10
1.8506264
 20
-5.589913
 10
1.8523764
 20
-5.589913
 10
1.8523764
 20
-5.588753
  0
LWPOLYLINE
  5
226
100
AcDbEntity
  8
detail
 62
    16
  6
CONTINUOUS
370
     5
100
AcDbPolyline
 90
        5
 70
     1
 43
0.0
 10
1.85662042
 20
-5.58736098
 10
1.8563264
 20
-5.58736098
 10
1.8563264
 20
-5.58670747
 10
1.8566264
 20
-5.58670747
 10
1.85662142
 20
-5.5873656
  0
3DFACE
  5
227
100
AcDbEntity
  8
detail
 62
    16
  6
CONTINUOUS
370
     5
100
AcDbFace
 70
     2
 10
1.85263626
 20
-5.592513
 30
0.25
 11
1.85263626
 21
-5.64061293
 31
0.25
 12
1.85313626
 22
-5.64061293
 32
0.25
 13
1.85313626
 23
-5.592513
 33
0.25
  0
LINE
  5
228
100
AcDbEntity
  8
detail
 62
    16
  6
CONTINUOUS
370
     5
100
AcDbLine
 10
1.8403264
 20
-5.56323166
 30
0.25
 11
1.8403264
 21
-5.55423166
 31
0.25
  0
LINE
  5
229
100
AcDbEntity
  8
detail
 62
   250
  6
CADWORK_LK1
370
     5
100
AcDbLine
 10
1.8223264
 20
-5.67445734
 30
0.0
 11
1.8223264
 21
-5.56323166
 31
0.0
  0
3DFACE
  5
22A
100
AcDbEntity
  8
detail
 62
    16
  6
CONTINUOUS
370
     5
100
AcDbFace
 70
     8
 10
1.85263626
 20
-5.64061293
 30
0.25
 11
1.85263626
 21
-5.67445734
 31
0.25
 12
1.85313626
 22
-5.67445734
 32
0.25
 13
1.85313626
 23
-5.64061293
 33
0.25
  0
3DFACE
  5
22B
100
AcDbEntity
  8
detail
 62
    16
  6
CONTINUOUS
370
     5
100
AcDbFace
 70
     8
 10
1.8557264
 20
-5.64061293
 30
0.25
 11
1.8557264
 21
-5.67445734
 31
0.25
 12
1.8562264
 22
-5.67445734
 32
0.25
 13
1.8562264
 23
-5.64061293
 33
0.25
  0
3DFACE
  5
22C
100
AcDbEntity
  8
detail
 62
    16
  6
CONTINUOUS
370
     5
100
AcDbFace
 70
     8
 10
1.85418133
 20
-5.64061293
 30
0.25
 11
1.85418133
 21
-5.67445734
 31
0.25
 12
1.85468133
 22
-5.67445734
 32
0.25
 13
1.85468133
 23
-5.64061293
 33
0.25
  0
LINE
  5
22D
100
AcDbEntity
  8
detail
 62
    16
  6
CONTINUOUS
370
     5
100
AcDbLine
 10
1.8579264
 20
-5.67445734
 30
0.0
 11
1.8579264
 21
-5.64061293
 31
0.0
  0
LINE
  5
22E
100
AcDbEntity
  8
detail
 62
    16
  6
CONTINUOUS
370
     5
100
AcDbLine
 10
1.8501764
 20
-5.67445734
 30
0.0
 11
1.8501764
 21
-5.64061293
 31
0.0
  0
LINE
  5
22F
100
AcDbEntity
  8
detail
 62
    16
  6
CONTINUOUS
370
     5
100
AcDbLine
 10
1.8208264
 20
-5.67445734
 30
0.0
 11
1.8208264
 21
-5.49851047
 31
0.0
  0
LINE
  5
230
100
AcDbEntity
  8
detail
 62
     4
  6
CONTINUOUS
370
     5
100
AcDbLine
 10
1.81464434
 20
-5.62408786
 30
0.0
 11
1.83233482
 21
-5.62408786
 31
0.0
  0
LINE
  5
231
100
AcDbEntity
  8
detail
 62
     4
  6
CONTINUOUS
370
     5
100
AcDbLine
 10
1.87637776
 20
-5.62975335
 30
0.0
 11
1.83486849
 21
-5.62975335
 31
0.0
  0
LWPOLYLINE
  5
232
100
AcDbEntity
  8
detail
 62
     4
  6
CONTINUOUS
370
     5
100
AcDbPolyline
 90
        3
 70
     0
 43
0.0
 10
1.87640024
 20
-5.59939628
 10
1.85161921
 20
-5.59939628
 10
1.84319029
 20
-5.58958501
  0
LWPOLYLINE
  5
233
100
AcDbEntity
  8
detail
 62
     4
  6
CONTINUOUS
370
     5
100
AcDbPolyline
 90
        3
 70
     0
 43
0.0
 10
1.81933082
 20
-5.5956427
 10
1.82978269
 20
-5.5956427
 10
1.84039189
 20
-5.57853329
  0
CIRCLE
  5
234
100
AcDbEntity
  8
detail
 62
     4
  6
CONTINUOUS
370
     9
100
AcDbCircle
 10
1.84039189
 20
-5.57853329
 30
0.0
 40
0.00039661
  0
CIRCLE
  5
235
100
AcDbEntity
  8
detail
 62
     4
  6
CONTINUOUS
370
     9
100
AcDbCircle
 10
1.84319029
 20
-5.58958501
 30
0.0
 40
0.00039661
  0
CIRCLE
  5
236
100
AcDbEntity
  8
detail
 62
     4
  6
CONTINUOUS
370
     9
100
AcDbCircle
 10
1.83233482
 20
-5.62408786
 30
0.0
 40
0.00039661
  0
CIRCLE
  5
237
100
AcDbEntity
  8
detail
 62
     4
  6
CONTINUOUS
370
     9
100
AcDbCircle
 10
1.83486849
 20
-5.62970332
 30
0.0
 40
0.00039661
  0
LINE
  5
238
100
AcDbEntity
  8
detail
 62
     4
  6
CONTINUOUS
370
     5
100
AcDbLine
 10
1.81617354
 20
-5.6444031
 30
0.0
 11
1.82796541
 21
-5.6444031
 31
0.0
  0
CIRCLE
  5
239
100
AcDbEntity
  8
detail
 62
     4
  6
CONTINUOUS
370
     9
100
AcDbCircle
 10
1.82796541
 20
-5.6444031
 30
0.0
 40
0.00039661
  0
LINE
  5
23A
100
AcDbEntity
  8
detail
 62
    16
  6
CONTINUOUS
370
     5
100
AcDbLine
 10
1.8208264
 20
-5.56323166
 30
0.25
 11
1.8403264
 21
-5.56323166
 31
0.25
  0
LINE
  5
23B
100
AcDbEntity
  8
detail
 62
     4
  6
CONTINUOUS
370
     5
100
AcDbLine
 10
1.87637776
 20
-5.5688478
 30
0.0
 11
1.84890294
 21
-5.5688478
 31
0.0
  0
LWPOLYLINE
  5
23C
100
AcDbEntity
  8
detail
 62
     4
  6
CONTINUOUS
370
     5
100
AcDbPolyline
 90
        3
 70
     0
 43
0.0
 10
1.80941251
 20
-5.54721825
 10
1.83688037
 20
-5.54721825
 10
1.84392336
 20
-5.55833504
  0
CIRCLE
  5
23D
100
AcDbEntity
  8
detail
 62
     4
  6
CONTINUOUS
370
     9
100
AcDbCircle
 10
1.84890294
 20
-5.5688478
 30
0.0
 40
0.00039661
  0
CIRCLE
  5
23E
100
AcDbEntity
  8
detail
 62
     4
  6
CONTINUOUS
370
     9
100
AcDbCircle
 10
1.84392336
 20
-5.55833504
 30
0.0
 40
0.00039661
  0
LINE
  5
23F
100
AcDbEntity
  8
detail
 62
    16
  6
CONTINUOUS
370
     5
100
AcDbLine
 10
1.84356956
 20
-5.57285014
 30
0.0
 11
1.84418728
 21
-5.5721956
 31
0.0
  0
LINE
  5
240
100
AcDbEntity
  8
detail
 62
    16
  6
CONTINUOUS
370
     5
100
AcDbLine
 10
1.83864102
 20
-5.56935276
 30
0.0
 11
1.84349307
 21
-5.57392388
 31
0.0
  0
LINE
  5
241
100
AcDbEntity
  8
detail
 62
    16
  6
CONTINUOUS
370
     5
100
AcDbLine
 10
1.83969543
 20
-5.56923328
 30
0.0
 11
1.84355314
 21
-5.57286753
 31
0.0
  0
LINE
  5
242
100
AcDbEntity
  8
detail
 62
    16
  6
CENTER
370
     5
100
AcDbLine
 10
1.83867837
 20
-5.57311227
 30
0.0
 11
1.84067837
 21
-5.57311227
 31
0.0
  0
LINE
  5
243
100
AcDbEntity
  8
detail
 62
    16
  6
CENTER
370
     5
100
AcDbLine
 10
1.83967837
 20
-5.57411227
 30
0.0
 11
1.83967837
 21
-5.57211227
 31
0.0
  0
LINE
  5
244
100
AcDbEntity
  8
detail
 62
    16
  6
CONTINUOUS
370
     5
100
AcDbLine
 10
1.84309192
 20
-5.57812871
 30
0.0
 11
1.84309192
 21
-5.5770138
 31
0.0
  0
LINE
  5
245
100
AcDbEntity
  8
detail
 62
    16
  6
CONTINUOUS
370
     5
100
AcDbLine
 10
1.83154697
 20
-5.56458012
 30
0.0
 11
1.83187511
 21
-5.56463274
 31
0.0
  0
LINE
  5
246
100
AcDbEntity
  8
detail
 62
    16
  6
CONTINUOUS
370
     5
100
AcDbLine
 10
1.84609192
 20
-5.57788919
 30
0.0
 11
1.84609192
 21
-5.57833919
 31
0.0
  0
LINE
  5
247
100
AcDbEntity
  8
detail
 62
    16
  6
CONTINUOUS
370
     5
100
AcDbLine
 10
1.84009192
 20
-5.57812871
 30
0.0
 11
1.84009192
 21
-5.5770138
 31
0.0
  0
LINE
  5
248
100
AcDbEntity
  8
detail
 62
    16
  6
CONTINUOUS
370
     5
100
AcDbLine
 10
1.8396399
 20
-5.5776273
 30
0.0
 11
1.84061187
 21
-5.5776273
 31
0.0
  0
LINE
  5
249
100
AcDbEntity
  8
detail
 62
    16
  6
CONTINUOUS
370
     5
100
AcDbLine
 10
1.8426399
 20
-5.5776273
 30
0.0
 11
1.84361187
 21
-5.5776273
 31
0.0
  0
LINE
  5
24A
100
AcDbEntity
  8
detail
 62
    16
  6
CONTINUOUS
370
     5
100
AcDbLine
 10
1.83191104
 20
-5.58237088
 30
0.0
 11
1.8319345
 21
-5.5823253
 31
0.0
  0
LINE
  5
24B
100
AcDbEntity
  8
detail
 62
    16
  6
CONTINUOUS
370
     5
100
AcDbLine
 10
1.8319345
 20
-5.5823253
 30
0.0
 11
1.83191794
 21
-5.58227677
 31
0.0
  0
LINE
  5
24C
100
AcDbEntity
  8
detail
 62
    16
  6
CONTINUOUS
370
     5
100
AcDbLine
 10
1.83193757
 20
-5.58237825
 30
0.0
 11
1.83196372
 21
-5.58232744
 31
0.0
  0
LINE
  5
24D
100
AcDbEntity
  8
detail
 62
    16
  6
CONTINUOUS
370
     5
100
AcDbLine
 10
1.83196372
 20
-5.58232744
 30
0.0
 11
1.83194526
 21
-5.58227336
 31
0.0
  0
LINE
  5
24E
100
AcDbEntity
  8
detail
 62
    16
  6
CONTINUOUS
370
     5
100
AcDbLine
 10
1.83192306
 20
-5.58347506
 30
0.0
 11
1.83194751
 21
-5.58352013
 31
0.0
  0
LINE
  5
24F
100
AcDbEntity
  8
detail
 62
    16
  6
CONTINUOUS
370
     5
100
AcDbLine
 10
1.83194751
 20
-5.58352013
 30
0.0
 11
1.831932
 21
-5.583569
 31
0.0
  0
LINE
  5
250
100
AcDbEntity
  8
detail
 62
    16
  6
CONTINUOUS
370
     5
100
AcDbLine
 10
1.83197667
 20
-5.58351735
 30
0.0
 11
1.8319594
 21
-5.58357182
 31
0.0
  0
LINE
  5
251
100
AcDbEntity
  8
detail
 62
    16
  6
CONTINUOUS
370
     5
100
AcDbLine
 10
1.83194943
 20
-5.58346712
 30
0.0
 11
1.83197667
 21
-5.58351735
 31
0.0
  0
LINE
  5
252
100
AcDbEntity
  8
detail
 62
    16
  6
CONTINUOUS
370
     5
100
AcDbLine
 10
1.83318101
 20
-5.56807705
 30
0.0
 11
1.83319912
 21
-5.56797663
 31
0.0
  0
LINE
  5
253
100
AcDbEntity
  8
detail
 62
    16
  6
CONTINUOUS
370
     5
100
AcDbLine
 10
1.83313642
 20
-5.56837739
 30
0.0
 11
1.83320116
 21
-5.56831337
 31
0.0
  0
LINE
  5
254
100
AcDbEntity
  8
detail
 62
    16
  6
CONTINUOUS
370
     5
100
AcDbLine
 10
1.8336707
 20
-5.56803622
 30
0.0
 11
1.8336391
 21
-5.56798766
 31
0.0
  0
LINE
  5
255
100
AcDbEntity
  8
detail
 62
    16
  6
CONTINUOUS
370
     5
100
AcDbLine
 10
1.83211578
 20
-5.58115779
 30
0.0
 11
1.83219228
 21
-5.5811106
 31
0.0
  0
LINE
  5
256
100
AcDbEntity
  8
detail
 62
    16
  6
CONTINUOUS
370
     5
100
AcDbLine
 10
1.83220826
 20
-5.58108314
 30
0.0
 11
1.83222488
 21
-5.58062556
 31
0.0
  0
LINE
  5
257
100
AcDbEntity
  8
detail
 62
    16
  6
CONTINUOUS
370
     5
100
AcDbLine
 10
1.83251925
 20
-5.58068906
 30
0.0
 11
1.83252125
 21
-5.58063653
 31
0.0
  0
LINE
  5
258
100
AcDbEntity
  8
detail
 62
    16
  6
CONTINUOUS
370
     5
100
AcDbLine
 10
1.83258495
 20
-5.58068565
 30
0.0
 11
1.83257426
 21
-5.58061078
 31
0.0
  0
LINE
  5
259
100
AcDbEntity
  8
detail
 62
    16
  6
CONTINUOUS
370
     5
100
AcDbLine
 10
1.83255825
 20
-5.58068944
 30
0.0
 11
1.83254674
 21
-5.58061051
 31
0.0
  0
LINE
  5
25A
100
AcDbEntity
  8
detail
 62
    16
  6
CONTINUOUS
370
     5
100
AcDbLine
 10
1.83254619
 20
-5.58069022
 30
0.0
 11
1.83254735
 21
-5.58061535
 31
0.0
  0
LINE
  5
25B
100
AcDbEntity
  8
detail
 62
    16
  6
CONTINUOUS
370
     5
100
AcDbLine
 10
1.8322929
 20
-5.58100822
 30
0.0
 11
1.83227877
 21
-5.58063652
 31
0.0
  0
LINE
  5
25C
100
AcDbEntity
  8
detail
 62
    16
  6
CONTINUOUS
370
     5
100
AcDbLine
 10
1.83226596
 20
-5.58100925
 30
0.0
 11
1.83225162
 21
-5.58063204
 31
0.0
  0
LINE
  5
25D
100
AcDbEntity
  8
detail
 62
    16
  6
CONTINUOUS
370
     5
100
AcDbLine
 10
1.83223521
 20
-5.58108412
 30
0.0
 11
1.83225182
 21
-5.58062654
 31
0.0
  0
LINE
  5
25E
100
AcDbEntity
  8
detail
 62
    16
  6
CONTINUOUS
370
     5
100
AcDbLine
 10
1.83212993
 20
-5.58118073
 30
0.0
 11
1.83220643
 21
-5.58113354
 31
0.0
  0
LINE
  5
25F
100
AcDbEntity
  8
detail
 62
    16
  6
CONTINUOUS
370
     5
100
AcDbLine
 10
1.832228
 20
-5.58476955
 30
0.0
 11
1.83223721
 21
-5.58424812
 31
0.0
  0
LINE
  5
260
100
AcDbEntity
  8
detail
 62
    16
  6
CONTINUOUS
370
     5
100
AcDbLine
 10
1.83220104
 20
-5.58476907
 30
0.0
 11
1.83221025
 21
-5.58424764
 31
0.0
  0
LINE
  5
261
100
AcDbEntity
  8
detail
 62
    16
  6
CONTINUOUS
370
     5
100
AcDbLine
 10
1.8323164
 20
-5.58103907
 30
0.0
 11
1.83245406
 21
-5.58108267
 31
0.0
  0
LINE
  5
262
100
AcDbEntity
  8
detail
 62
    16
  6
CONTINUOUS
370
     5
100
AcDbLine
 10
1.83230826
 20
-5.58106477
 30
0.0
 11
1.83244592
 21
-5.58110838
 31
0.0
  0
LINE
  5
263
100
AcDbEntity
  8
detail
 62
    16
  6
CONTINUOUS
370
     5
100
AcDbLine
 10
1.83240703
 20
-5.5848141
 30
0.0
 11
1.83234865
 21
-5.58478306
 31
0.0
  0
LINE
  5
264
100
AcDbEntity
  8
detail
 62
    16
  6
CONTINUOUS
370
     5
100
AcDbLine
 10
1.83242289
 20
-5.58479034
 30
0.0
 11
1.83236451
 21
-5.5847593
 31
0.0
  0
LINE
  5
265
100
AcDbEntity
  8
detail
 62
    16
  6
CONTINUOUS
370
     5
100
AcDbLine
 10
1.8326944
 20
-5.58426032
 30
0.0
 11
1.83268978
 21
-5.58461398
 31
0.0
  0
LINE
  5
266
100
AcDbEntity
  8
detail
 62
    16
  6
CONTINUOUS
370
     5
100
AcDbLine
 10
1.83247801
 20
-5.58476041
 30
0.0
 11
1.83247302
 21
-5.58477424
 31
0.0
  0
LINE
  5
267
100
AcDbEntity
  8
detail
 62
    16
  6
CONTINUOUS
370
     5
100
AcDbLine
 10
1.83243875
 20
-5.58476658
 30
0.0
 11
1.83237261
 21
-5.58473358
 31
0.0
  0
LINE
  5
268
100
AcDbEntity
  8
detail
 62
    16
  6
CONTINUOUS
370
     5
100
AcDbLine
 10
1.83266745
 20
-5.58425997
 30
0.0
 11
1.83266131
 21
-5.58461623
 31
0.0
  0
LINE
  5
269
100
AcDbEntity
  8
detail
 62
    16
  6
CONTINUOUS
370
     5
100
AcDbLine
 10
1.83266131
 20
-5.58461623
 30
0.0
 11
1.83265488
 21
-5.58425989
 31
0.0
  0
LINE
  5
26A
100
AcDbEntity
  8
detail
 62
    16
  6
CONTINUOUS
370
     5
100
AcDbLine
 10
1.83263283
 20
-5.58461849
 30
0.0
 11
1.83262793
 21
-5.58426026
 31
0.0
  0
LINE
  5
26B
100
AcDbEntity
  8
detail
 62
    16
  6
CONTINUOUS
370
     5
100
AcDbLine
 10
1.8323884
 20
-5.58471356
 30
0.0
 11
1.83247801
 21
-5.58476041
 31
0.0
  0
LINE
  5
26C
100
AcDbEntity
  8
detail
 62
    16
  6
CONTINUOUS
370
     5
100
AcDbLine
 10
1.8334264
 20
-5.58017094
 30
0.0
 11
1.8333099
 21
-5.58017094
 31
0.0
  0
LINE
  5
26D
100
AcDbEntity
  8
detail
 62
    16
  6
CONTINUOUS
370
     5
100
AcDbLine
 10
1.83506607
 20
-5.56957703
 30
0.0
 11
1.84471706
 21
-5.56957703
 31
0.0
  0
LINE
  5
26E
100
AcDbEntity
  8
detail
 62
    16
  6
CONTINUOUS
370
     5
100
AcDbLine
 10
1.84594416
 20
-5.57119607
 30
0.0
 11
1.84594416
 21
-5.56709212
 31
0.0
  0
LINE
  5
26F
100
AcDbEntity
  8
detail
 62
    16
  6
CONTINUOUS
370
     5
100
AcDbLine
 10
1.84594416
 20
-5.57821756
 30
0.0
 11
1.84594416
 21
-5.57502846
 31
0.0
  0
LINE
  5
270
100
AcDbEntity
  8
detail
 62
    16
  6
CONTINUOUS
370
     5
100
AcDbLine
 10
1.83506607
 20
-5.56903814
 30
0.0
 11
1.84471706
 21
-5.56903814
 31
0.0
  0
LINE
  5
271
100
AcDbEntity
  8
detail
 62
    16
  6
CONTINUOUS
370
     5
100
AcDbLine
 10
1.8313264
 20
-5.56482871
 30
0.0
 11
1.8313264
 21
-5.58258734
 31
0.0
  0
LINE
  5
272
100
AcDbEntity
  8
detail
 62
    16
  6
CONTINUOUS
370
     5
100
AcDbLine
 10
1.83139435
 20
-5.58311227
 30
0.0
 11
1.83189658
 21
-5.58311227
 31
0.0
  0
LINE
  5
273
100
AcDbEntity
  8
detail
 62
    16
  6
CONTINUOUS
370
     5
100
AcDbLine
 10
1.83506607
 20
-5.57611609
 30
0.0
 11
1.84471706
 21
-5.57611609
 31
0.0
  0
LINE
  5
274
100
AcDbEntity
  8
detail
 62
    16
  6
CONTINUOUS
370
     5
100
AcDbLine
 10
1.8319201
 20
-5.56658011
 30
0.0
 11
1.8319201
 21
-5.56829684
 31
0.0
  0
LINE
  5
275
100
AcDbEntity
  8
detail
 62
    16
  6
CONTINUOUS
370
     5
100
AcDbLine
 10
1.83192315
 20
-5.57036966
 30
0.0
 11
1.83195226
 21
-5.57032745
 31
0.0
  0
LINE
  5
276
100
AcDbEntity
  8
detail
 62
    16
  6
CONTINUOUS
370
     5
100
AcDbLine
 10
1.83195226
 20
-5.57032745
 30
0.0
 11
1.83194204
 21
-5.5702772
 31
0.0
  0
LINE
  5
277
100
AcDbEntity
  8
detail
 62
    16
  6
CONTINUOUS
370
     5
100
AcDbLine
 10
1.83194853
 20
-5.57038036
 30
0.0
 11
1.83198096
 21
-5.57033331
 31
0.0
  0
LINE
  5
278
100
AcDbEntity
  8
detail
 62
    16
  6
CONTINUOUS
370
     5
100
AcDbLine
 10
1.83198096
 20
-5.57033331
 30
0.0
 11
1.83196957
 21
-5.57027731
 31
0.0
  0
LINE
  5
279
100
AcDbEntity
  8
detail
 62
    16
  6
CONTINUOUS
370
     5
100
AcDbLine
 10
1.83179381
 20
-5.5714663
 30
0.0
 11
1.83181229
 21
-5.57151413
 31
0.0
  0
LINE
  5
27A
100
AcDbEntity
  8
detail
 62
    16
  6
CONTINUOUS
370
     5
100
AcDbLine
 10
1.83181229
 20
-5.57151413
 30
0.0
 11
1.83179066
 21
-5.57156061
 31
0.0
  0
LINE
  5
27B
100
AcDbEntity
  8
detail
 62
    16
  6
CONTINUOUS
370
     5
100
AcDbLine
 10
1.83184157
 20
-5.57151511
 30
0.0
 11
1.83181747
 21
-5.57156692
 31
0.0
  0
LINE
  5
27C
100
AcDbEntity
  8
detail
 62
    16
  6
CONTINUOUS
370
     5
100
AcDbLine
 10
1.83182098
 20
-5.5714618
 30
0.0
 11
1.83184157
 21
-5.57151511
 31
0.0
  0
LINE
  5
27D
100
AcDbEntity
  8
detail
 62
    16
  6
CONTINUOUS
370
     5
100
AcDbLine
 10
1.83228142
 20
-5.56919273
 30
0.0
 11
1.83236332
 21
-5.56915571
 31
0.0
  0
LINE
  5
27E
100
AcDbEntity
  8
detail
 62
    16
  6
CONTINUOUS
370
     5
100
AcDbLine
 10
1.83238269
 20
-5.56913052
 30
0.0
 11
1.83245771
 21
-5.56867883
 31
0.0
  0
LINE
  5
27F
100
AcDbEntity
  8
detail
 62
    16
  6
CONTINUOUS
370
     5
100
AcDbLine
 10
1.83274154
 20
-5.56877947
 30
0.0
 11
1.83275024
 21
-5.56872763
 31
0.0
  0
LINE
  5
280
100
AcDbEntity
  8
detail
 62
    16
  6
CONTINUOUS
370
     5
100
AcDbLine
 10
1.83280714
 20
-5.5687845
 30
0.0
 11
1.83280612
 21
-5.56870887
 31
0.0
  0
LINE
  5
281
100
AcDbEntity
  8
detail
 62
    16
  6
CONTINUOUS
370
     5
100
AcDbLine
 10
1.83278018
 20
-5.56878484
 30
0.0
 11
1.83277886
 21
-5.56870509
 31
0.0
  0
LINE
  5
282
100
AcDbEntity
  8
detail
 62
    16
  6
CONTINUOUS
370
     5
100
AcDbLine
 10
1.83276811
 20
-5.56878407
 30
0.0
 11
1.83277884
 21
-5.56870996
 31
0.0
  0
LINE
  5
283
100
AcDbEntity
  8
detail
 62
    16
  6
CONTINUOUS
370
     5
100
AcDbLine
 10
1.83247622
 20
-5.56906705
 30
0.0
 11
1.83250976
 21
-5.5686966
 31
0.0
  0
LINE
  5
284
100
AcDbEntity
  8
detail
 62
    16
  6
CONTINUOUS
370
     5
100
AcDbLine
 10
1.83244937
 20
-5.56906462
 30
0.0
 11
1.83248341
 21
-5.56868868
 31
0.0
  0
LINE
  5
285
100
AcDbEntity
  8
detail
 62
    16
  6
CONTINUOUS
370
     5
100
AcDbLine
 10
1.83240929
 20
-5.56913494
 30
0.0
 11
1.83248431
 21
-5.56868325
 31
0.0
  0
LINE
  5
286
100
AcDbEntity
  8
detail
 62
    16
  6
CONTINUOUS
370
     5
100
AcDbLine
 10
1.83229252
 20
-5.5692173
 30
0.0
 11
1.83237443
 21
-5.56918028
 31
0.0
  0
LINE
  5
287
100
AcDbEntity
  8
detail
 62
    16
  6
CONTINUOUS
370
     5
100
AcDbLine
 10
1.83193062
 20
-5.57278916
 30
0.0
 11
1.83200647
 21
-5.5722732
 31
0.0
  0
LINE
  5
288
100
AcDbEntity
  8
detail
 62
    16
  6
CONTINUOUS
370
     5
100
AcDbLine
 10
1.83190395
 20
-5.57278524
 30
0.0
 11
1.8319798
 21
-5.57226928
 31
0.0
  0
LINE
  5
289
100
AcDbEntity
  8
detail
 62
    16
  6
CONTINUOUS
370
     5
100
AcDbLine
 10
1.83249558
 20
-5.56910065
 30
0.0
 11
1.83262653
 21
-5.56916151
 31
0.0
  0
LINE
  5
28A
100
AcDbEntity
  8
detail
 62
    16
  6
CONTINUOUS
370
     5
100
AcDbLine
 10
1.83248422
 20
-5.5691251
 30
0.0
 11
1.83261517
 21
-5.56918596
 31
0.0
  0
LINE
  5
28B
100
AcDbEntity
  8
detail
 62
    16
  6
CONTINUOUS
370
     5
100
AcDbLine
 10
1.83210248
 20
-5.57285625
 30
0.0
 11
1.83204856
 21
-5.572818
 31
0.0
  0
LINE
  5
28C
100
AcDbEntity
  8
detail
 62
    16
  6
CONTINUOUS
370
     5
100
AcDbLine
 10
1.83212125
 20
-5.57283472
 30
0.0
 11
1.83206733
 21
-5.57279647
 31
0.0
  0
LINE
  5
28D
100
AcDbEntity
  8
detail
 62
    16
  6
CONTINUOUS
370
     5
100
AcDbLine
 10
1.83245835
 20
-5.57234379
 30
0.0
 11
1.83240852
 21
-5.57269395
 31
0.0
  0
LINE
  5
28E
100
AcDbEntity
  8
detail
 62
    16
  6
CONTINUOUS
370
     5
100
AcDbLine
 10
1.83217975
 20
-5.57281209
 30
0.0
 11
1.83217303
 21
-5.57282516
 31
0.0
  0
LINE
  5
28F
100
AcDbEntity
  8
detail
 62
    16
  6
CONTINUOUS
370
     5
100
AcDbLine
 10
1.83214002
 20
-5.57281318
 30
0.0
 11
1.83207865
 21
-5.572772
 31
0.0
  0
LINE
  5
290
100
AcDbEntity
  8
detail
 62
    16
  6
CONTINUOUS
370
     5
100
AcDbLine
 10
1.83243166
 20
-5.57233999
 30
0.0
 11
1.83237999
 21
-5.57269255
 31
0.0
  0
LINE
  5
291
100
AcDbEntity
  8
detail
 62
    16
  6
CONTINUOUS
370
     5
100
AcDbLine
 10
1.83237999
 20
-5.57269255
 30
0.0
 11
1.83241921
 21
-5.57233831
 31
0.0
  0
LINE
  5
292
100
AcDbEntity
  8
detail
 62
    16
  6
CONTINUOUS
370
     5
100
AcDbLine
 10
1.83235145
 20
-5.57269114
 30
0.0
 11
1.83239242
 21
-5.57233523
 31
0.0
  0
LINE
  5
293
100
AcDbEntity
  8
detail
 62
    16
  6
CONTINUOUS
370
     5
100
AcDbLine
 10
1.83209687
 20
-5.57275416
 30
0.0
 11
1.83217975
 21
-5.57281209
 31
0.0
  0
LINE
  5
294
100
AcDbEntity
  8
detail
 62
    16
  6
CONTINUOUS
370
     5
100
AcDbLine
 10
1.83506607
 20
-5.57789674
 30
0.0
 11
1.84471706
 21
-5.57789674
 31
0.0
  0
LINE
  5
295
100
AcDbEntity
  8
detail
 62
    16
  6
CONTINUOUS
370
     5
100
AcDbLine
 10
1.83187093
 20
-5.56504682
 30
0.0
 11
1.83283274
 21
-5.56602635
 31
0.0
  0
LINE
  5
296
100
AcDbEntity
  8
detail
 62
    16
  6
CONTINUOUS
370
     5
100
AcDbLine
 10
1.83506607
 20
-5.57557721
 30
0.0
 11
1.84471706
 21
-5.57557721
 31
0.0
  0
LINE
  5
297
100
AcDbEntity
  8
detail
 62
    16
  6
CONTINUOUS
370
     5
100
AcDbLine
 10
1.83187511
 20
-5.56463274
 30
0.0
 11
1.83304181
 21
-5.56582055
 31
0.0
  0
LINE
  5
298
100
AcDbEntity
  8
detail
 62
    16
  6
CONTINUOUS
370
     5
100
AcDbLine
 10
1.83506607
 20
-5.57170808
 30
0.0
 11
1.84543215
 21
-5.57170808
 31
0.0
  0
LINE
  5
299
100
AcDbEntity
  8
detail
 62
    16
  6
CONTINUOUS
370
     5
100
AcDbLine
 10
1.83506607
 20
-5.57451645
 30
0.0
 11
1.84543215
 21
-5.57451645
 31
0.0
  0
LINE
  5
29A
100
AcDbEntity
  8
detail
 62
    16
  6
CONTINUOUS
370
     5
100
AcDbLine
 10
1.84543215
 20
-5.56658011
 30
0.0
 11
1.8319201
 21
-5.56658011
 31
0.0
  0
LINE
  5
29B
100
AcDbEntity
  8
detail
 62
    16
  6
CONTINUOUS
370
     5
100
AcDbLine
 10
1.83399108
 20
-5.57872957
 30
0.0
 11
1.84543215
 21
-5.57872957
 31
0.0
  0
LINE
  5
29C
100
AcDbEntity
  8
detail
 62
    16
  6
CONTINUOUS
370
     5
100
AcDbLine
 10
1.83506607
 20
-5.57735786
 30
0.0
 11
1.84471706
 21
-5.57735786
 31
0.0
  0
LINE
  5
29D
100
AcDbEntity
  8
detail
 62
    16
  6
CONTINUOUS
370
     5
100
AcDbLine
 10
1.83283274
 20
-5.56602635
 30
0.0
 11
1.83304181
 21
-5.56582055
 31
0.0
  0
LINE
  5
29E
100
AcDbEntity
  8
detail
 62
    16
  6
CONTINUOUS
370
     5
100
AcDbLine
 10
1.83164865
 20
-5.57440162
 30
0.0
 11
1.83167212
 21
-5.57435603
 31
0.0
  0
LINE
  5
29F
100
AcDbEntity
  8
detail
 62
    16
  6
CONTINUOUS
370
     5
100
AcDbLine
 10
1.83167212
 20
-5.57435603
 30
0.0
 11
1.83165555
 21
-5.5743075
 31
0.0
  0
LINE
  5
2A0
100
AcDbEntity
  8
detail
 62
    16
  6
CONTINUOUS
370
     5
100
AcDbLine
 10
1.83167519
 20
-5.57440898
 30
0.0
 11
1.83170133
 21
-5.57435817
 31
0.0
  0
LINE
  5
2A1
100
AcDbEntity
  8
detail
 62
    16
  6
CONTINUOUS
370
     5
100
AcDbLine
 10
1.83170133
 20
-5.57435817
 30
0.0
 11
1.83168288
 21
-5.57430409
 31
0.0
  0
LINE
  5
2A2
100
AcDbEntity
  8
detail
 62
    16
  6
CONTINUOUS
370
     5
100
AcDbLine
 10
1.83166068
 20
-5.57550579
 30
0.0
 11
1.83168512
 21
-5.57555086
 31
0.0
  0
LINE
  5
2A3
100
AcDbEntity
  8
detail
 62
    16
  6
CONTINUOUS
370
     5
100
AcDbLine
 10
1.83168512
 20
-5.57555086
 30
0.0
 11
1.83166962
 21
-5.57559973
 31
0.0
  0
LINE
  5
2A4
100
AcDbEntity
  8
detail
 62
    16
  6
CONTINUOUS
370
     5
100
AcDbLine
 10
1.83171429
 20
-5.57554809
 30
0.0
 11
1.83169701
 21
-5.57560256
 31
0.0
  0
LINE
  5
2A5
100
AcDbEntity
  8
detail
 62
    16
  6
CONTINUOUS
370
     5
100
AcDbLine
 10
1.83168704
 20
-5.57549786
 30
0.0
 11
1.83171429
 21
-5.57554809
 31
0.0
  0
LINE
  5
2A6
100
AcDbEntity
  8
detail
 62
    16
  6
CONTINUOUS
370
     5
100
AcDbLine
 10
1.83185339
 20
-5.57318852
 30
0.0
 11
1.83192989
 21
-5.57314133
 31
0.0
  0
LINE
  5
2A7
100
AcDbEntity
  8
detail
 62
    16
  6
CONTINUOUS
370
     5
100
AcDbLine
 10
1.83194588
 20
-5.57311387
 30
0.0
 11
1.83196249
 21
-5.57265629
 31
0.0
  0
LINE
  5
2A8
100
AcDbEntity
  8
detail
 62
    16
  6
CONTINUOUS
370
     5
100
AcDbLine
 10
1.83225686
 20
-5.57271979
 30
0.0
 11
1.83225886
 21
-5.57266726
 31
0.0
  0
LINE
  5
2A9
100
AcDbEntity
  8
detail
 62
    16
  6
CONTINUOUS
370
     5
100
AcDbLine
 10
1.83232256
 20
-5.57271638
 30
0.0
 11
1.83231188
 21
-5.57264151
 31
0.0
  0
LINE
  5
2AA
100
AcDbEntity
  8
detail
 62
    16
  6
CONTINUOUS
370
     5
100
AcDbLine
 10
1.83229587
 20
-5.57272017
 30
0.0
 11
1.83228436
 21
-5.57264125
 31
0.0
  0
LINE
  5
2AB
100
AcDbEntity
  8
detail
 62
    16
  6
CONTINUOUS
370
     5
100
AcDbLine
 10
1.8322838
 20
-5.57272096
 30
0.0
 11
1.83228496
 21
-5.57264608
 31
0.0
  0
LINE
  5
2AC
100
AcDbEntity
  8
detail
 62
    16
  6
CONTINUOUS
370
     5
100
AcDbLine
 10
1.83203051
 20
-5.57303895
 30
0.0
 11
1.83201639
 21
-5.57266726
 31
0.0
  0
LINE
  5
2AD
100
AcDbEntity
  8
detail
 62
    16
  6
CONTINUOUS
370
     5
100
AcDbLine
 10
1.83176879
 20
-5.57842558
 30
0.0
 11
1.83178991
 21
-5.57837885
 31
0.0
  0
LINE
  5
2AE
100
AcDbEntity
  8
detail
 62
    16
  6
CONTINUOUS
370
     5
100
AcDbLine
 10
1.83260059
 20
-5.56892757
 30
0.0
 11
1.83256282
 21
-5.56885932
 31
0.0
  0
LINE
  5
2AF
100
AcDbEntity
  8
detail
 62
    16
  6
CONTINUOUS
370
     5
100
AcDbLine
 10
1.83257798
 20
-5.56875826
 30
0.0
 11
1.83261177
 21
-5.56872566
 31
0.0
  0
LINE
  5
2B0
100
AcDbEntity
  8
detail
 62
    16
  6
CONTINUOUS
370
     5
100
AcDbLine
 10
1.83263851
 20
-5.56874511
 30
0.0
 11
1.83260977
 21
-5.56880396
 31
0.0
  0
LINE
  5
2B1
100
AcDbEntity
  8
detail
 62
    16
  6
CONTINUOUS
370
     5
100
AcDbLine
 10
1.83261043
 20
-5.56882979
 30
0.0
 11
1.83262628
 21
-5.56885843
 31
0.0
  0
LINE
  5
2B2
100
AcDbEntity
  8
detail
 62
    16
  6
CONTINUOUS
370
     5
100
AcDbLine
 10
1.83260059
 20
-5.56892757
 30
0.0
 11
1.83256282
 21
-5.56885932
 31
0.0
  0
LINE
  5
2B3
100
AcDbEntity
  8
detail
 62
    16
  6
CONTINUOUS
370
     5
100
AcDbLine
 10
1.83257798
 20
-5.56875826
 30
0.0
 11
1.83261177
 21
-5.56872566
 31
0.0
  0
LINE
  5
2B4
100
AcDbEntity
  8
detail
 62
    16
  6
CONTINUOUS
370
     5
100
AcDbLine
 10
1.83263851
 20
-5.56874511
 30
0.0
 11
1.83260977
 21
-5.56880396
 31
0.0
  0
LINE
  5
2B5
100
AcDbEntity
  8
detail
 62
    16
  6
CONTINUOUS
370
     5
100
AcDbLine
 10
1.83261043
 20
-5.56882979
 30
0.0
 11
1.83262628
 21
-5.56885843
 31
0.0
  0
LINE
  5
2B6
100
AcDbEntity
  8
detail
 62
    16
  6
CONTINUOUS
370
     5
100
AcDbLine
 10
1.83260059
 20
-5.56892757
 30
0.0
 11
1.83256282
 21
-5.56885932
 31
0.0
  0
LINE
  5
2B7
100
AcDbEntity
  8
detail
 62
    16
  6
CONTINUOUS
370
     5
100
AcDbLine
 10
1.83257798
 20
-5.56875826
 30
0.0
 11
1.83261177
 21
-5.56872566
 31
0.0
  0
LINE
  5
2B8
100
AcDbEntity
  8
detail
 62
    16
  6
CONTINUOUS
370
     5
100
AcDbLine
 10
1.83263851
 20
-5.56874511
 30
0.0
 11
1.83260977
 21
-5.56880396
 31
0.0
  0
LINE
  5
2B9
100
AcDbEntity
  8
detail
 62
    16
  6
CONTINUOUS
370
     5
100
AcDbLine
 10
1.83261043
 20
-5.56882979
 30
0.0
 11
1.83262628
 21
-5.56885843
 31
0.0
  0
LINE
  5
2BA
100
AcDbEntity
  8
detail
 62
    16
  6
CONTINUOUS
370
     5
100
AcDbLine
 10
1.83260059
 20
-5.56892757
 30
0.0
 11
1.83256282
 21
-5.56885932
 31
0.0
  0
LINE
  5
2BB
100
AcDbEntity
  8
detail
 62
    16
  6
CONTINUOUS
370
     5
100
AcDbLine
 10
1.83257798
 20
-5.56875826
 30
0.0
 11
1.83261177
 21
-5.56872566
 31
0.0
  0
LINE
  5
2BC
100
AcDbEntity
  8
detail
 62
    16
  6
CONTINUOUS
370
     5
100
AcDbLine
 10
1.83263851
 20
-5.56874511
 30
0.0
 11
1.83260977
 21
-5.56880396
 31
0.0
  0
LINE
  5
2BD
100
AcDbEntity
  8
detail
 62
    16
  6
CONTINUOUS
370
     5
100
AcDbLine
 10
1.83261043
 20
-5.56882979
 30
0.0
 11
1.83262628
 21
-5.56885843
 31
0.0
  0
LINE
  5
2BE
100
AcDbEntity
  8
detail
 62
    16
  6
CONTINUOUS
370
     5
100
AcDbLine
 10
1.83260059
 20
-5.56892757
 30
0.0
 11
1.83256282
 21
-5.56885932
 31
0.0
  0
LINE
  5
2BF
100
AcDbEntity
  8
detail
 62
    16
  6
CONTINUOUS
370
     5
100
AcDbLine
 10
1.83257798
 20
-5.56875826
 30
0.0
 11
1.83261177
 21
-5.56872566
 31
0.0
  0
LINE
  5
2C0
100
AcDbEntity
  8
detail
 62
    16
  6
CONTINUOUS
370
     5
100
AcDbLine
 10
1.83263851
 20
-5.56874511
 30
0.0
 11
1.83260977
 21
-5.56880396
 31
0.0
  0
LINE
  5
2C1
100
AcDbEntity
  8
detail
 62
    16
  6
CONTINUOUS
370
     5
100
AcDbLine
 10
1.83261043
 20
-5.56882979
 30
0.0
 11
1.83262628
 21
-5.56885843
 31
0.0
  0
LINE
  5
2C2
100
AcDbEntity
  8
detail
 62
    16
  6
CONTINUOUS
370
     5
100
AcDbLine
 10
1.83260059
 20
-5.56892757
 30
0.0
 11
1.83256282
 21
-5.56885932
 31
0.0
  0
LINE
  5
2C3
100
AcDbEntity
  8
detail
 62
    16
  6
CONTINUOUS
370
     5
100
AcDbLine
 10
1.83257798
 20
-5.56875826
 30
0.0
 11
1.83261177
 21
-5.56872566
 31
0.0
  0
LINE
  5
2C4
100
AcDbEntity
  8
detail
 62
    16
  6
CONTINUOUS
370
     5
100
AcDbLine
 10
1.83263851
 20
-5.56874511
 30
0.0
 11
1.83260977
 21
-5.56880396
 31
0.0
  0
LINE
  5
2C5
100
AcDbEntity
  8
detail
 62
    16
  6
CONTINUOUS
370
     5
100
AcDbLine
 10
1.83261043
 20
-5.56882979
 30
0.0
 11
1.83262628
 21
-5.56885843
 31
0.0
  0
LINE
  5
2C6
100
AcDbEntity
  8
detail
 62
    16
  6
CONTINUOUS
370
     5
100
AcDbLine
 10
1.83260059
 20
-5.56892757
 30
0.0
 11
1.83256282
 21
-5.56885932
 31
0.0
  0
LINE
  5
2C7
100
AcDbEntity
  8
detail
 62
    16
  6
CONTINUOUS
370
     5
100
AcDbLine
 10
1.83257798
 20
-5.56875826
 30
0.0
 11
1.83261177
 21
-5.56872566
 31
0.0
  0
LINE
  5
2C8
100
AcDbEntity
  8
detail
 62
    16
  6
CONTINUOUS
370
     5
100
AcDbLine
 10
1.83263851
 20
-5.56874511
 30
0.0
 11
1.83260977
 21
-5.56880396
 31
0.0
  0
LINE
  5
2C9
100
AcDbEntity
  8
detail
 62
    16
  6
CONTINUOUS
370
     5
100
AcDbLine
 10
1.83261043
 20
-5.56882979
 30
0.0
 11
1.83262628
 21
-5.56885843
 31
0.0
  0
LINE
  5
2CA
100
AcDbEntity
  8
detail
 62
    16
  6
CONTINUOUS
370
     5
100
AcDbLine
 10
1.83260059
 20
-5.56892757
 30
0.0
 11
1.83256282
 21
-5.56885932
 31
0.0
  0
LINE
  5
2CB
100
AcDbEntity
  8
detail
 62
    16
  6
CONTINUOUS
370
     5
100
AcDbLine
 10
1.83257798
 20
-5.56875826
 30
0.0
 11
1.83261177
 21
-5.56872566
 31
0.0
  0
LINE
  5
2CC
100
AcDbEntity
  8
detail
 62
    16
  6
CONTINUOUS
370
     5
100
AcDbLine
 10
1.83263851
 20
-5.56874511
 30
0.0
 11
1.83260977
 21
-5.56880396
 31
0.0
  0
LINE
  5
2CD
100
AcDbEntity
  8
detail
 62
    16
  6
CONTINUOUS
370
     5
100
AcDbLine
 10
1.83261043
 20
-5.56882979
 30
0.0
 11
1.83262628
 21
-5.56885843
 31
0.0
  0
LINE
  5
2CE
100
AcDbEntity
  8
detail
 62
    16
  6
CONTINUOUS
370
     5
100
AcDbLine
 10
1.83260059
 20
-5.56892757
 30
0.0
 11
1.83256282
 21
-5.56885932
 31
0.0
  0
LINE
  5
2CF
100
AcDbEntity
  8
detail
 62
    16
  6
CONTINUOUS
370
     5
100
AcDbLine
 10
1.83257798
 20
-5.56875826
 30
0.0
 11
1.83261177
 21
-5.56872566
 31
0.0
  0
LINE
  5
2D0
100
AcDbEntity
  8
detail
 62
    16
  6
CONTINUOUS
370
     5
100
AcDbLine
 10
1.83263851
 20
-5.56874511
 30
0.0
 11
1.83260977
 21
-5.56880396
 31
0.0
  0
LINE
  5
2D1
100
AcDbEntity
  8
detail
 62
    16
  6
CONTINUOUS
370
     5
100
AcDbLine
 10
1.83261043
 20
-5.56882979
 30
0.0
 11
1.83262628
 21
-5.56885843
 31
0.0
  0
LINE
  5
2D2
100
AcDbEntity
  8
detail
 62
    16
  6
CONTINUOUS
370
     5
100
AcDbLine
 10
1.83260059
 20
-5.56892757
 30
0.0
 11
1.83256282
 21
-5.56885932
 31
0.0
  0
LINE
  5
2D3
100
AcDbEntity
  8
detail
 62
    16
  6
CONTINUOUS
370
     5
100
AcDbLine
 10
1.83257798
 20
-5.56875826
 30
0.0
 11
1.83261177
 21
-5.56872566
 31
0.0
  0
LINE
  5
2D4
100
AcDbEntity
  8
detail
 62
    16
  6
CONTINUOUS
370
     5
100
AcDbLine
 10
1.83263851
 20
-5.56874511
 30
0.0
 11
1.83260977
 21
-5.56880396
 31
0.0
  0
LINE
  5
2D5
100
AcDbEntity
  8
detail
 62
    16
  6
CONTINUOUS
370
     5
100
AcDbLine
 10
1.83261043
 20
-5.56882979
 30
0.0
 11
1.83262628
 21
-5.56885843
 31
0.0
  0
LINE
  5
2D6
100
AcDbEntity
  8
detail
 62
    16
  6
CONTINUOUS
370
     5
100
AcDbLine
 10
1.83260059
 20
-5.56892757
 30
0.0
 11
1.83256282
 21
-5.56885932
 31
0.0
  0
LINE
  5
2D7
100
AcDbEntity
  8
detail
 62
    16
  6
CONTINUOUS
370
     5
100
AcDbLine
 10
1.83257798
 20
-5.56875826
 30
0.0
 11
1.83261177
 21
-5.56872566
 31
0.0
  0
LINE
  5
2D8
100
AcDbEntity
  8
detail
 62
    16
  6
CONTINUOUS
370
     5
100
AcDbLine
 10
1.83263851
 20
-5.56874511
 30
0.0
 11
1.83260977
 21
-5.56880396
 31
0.0
  0
LINE
  5
2D9
100
AcDbEntity
  8
detail
 62
    16
  6
CONTINUOUS
370
     5
100
AcDbLine
 10
1.83261043
 20
-5.56882979
 30
0.0
 11
1.83262628
 21
-5.56885843
 31
0.0
  0
LINE
  5
2DA
100
AcDbEntity
  8
detail
 62
    16
  6
CONTINUOUS
370
     5
100
AcDbLine
 10
1.83260059
 20
-5.56892757
 30
0.0
 11
1.83256282
 21
-5.56885932
 31
0.0
  0
LINE
  5
2DB
100
AcDbEntity
  8
detail
 62
    16
  6
CONTINUOUS
370
     5
100
AcDbLine
 10
1.83257798
 20
-5.56875826
 30
0.0
 11
1.83261177
 21
-5.56872566
 31
0.0
  0
LINE
  5
2DC
100
AcDbEntity
  8
detail
 62
    16
  6
CONTINUOUS
370
     5
100
AcDbLine
 10
1.83263851
 20
-5.56874511
 30
0.0
 11
1.83260977
 21
-5.56880396
 31
0.0
  0
LINE
  5
2DD
100
AcDbEntity
  8
detail
 62
    16
  6
CONTINUOUS
370
     5
100
AcDbLine
 10
1.83261043
 20
-5.56882979
 30
0.0
 11
1.83262628
 21
-5.56885843
 31
0.0
  0
LINE
  5
2DE
100
AcDbEntity
  8
detail
 62
    16
  6
CONTINUOUS
370
     5
100
AcDbLine
 10
1.83260059
 20
-5.56892757
 30
0.0
 11
1.83256282
 21
-5.56885932
 31
0.0
  0
LINE
  5
2DF
100
AcDbEntity
  8
detail
 62
    16
  6
CONTINUOUS
370
     5
100
AcDbLine
 10
1.83257798
 20
-5.56875826
 30
0.0
 11
1.83261177
 21
-5.56872566
 31
0.0
  0
LINE
  5
2E0
100
AcDbEntity
  8
detail
 62
    16
  6
CONTINUOUS
370
     5
100
AcDbLine
 10
1.83263851
 20
-5.56874511
 30
0.0
 11
1.83260977
 21
-5.56880396
 31
0.0
  0
LINE
  5
2E1
100
AcDbEntity
  8
detail
 62
    16
  6
CONTINUOUS
370
     5
100
AcDbLine
 10
1.83261043
 20
-5.56882979
 30
0.0
 11
1.83262628
 21
-5.56885843
 31
0.0
  0
LINE
  5
2E2
100
AcDbEntity
  8
detail
 62
    16
  6
CONTINUOUS
370
     5
100
AcDbLine
 10
1.83260059
 20
-5.56892757
 30
0.0
 11
1.83256282
 21
-5.56885932
 31
0.0
  0
LINE
  5
2E3
100
AcDbEntity
  8
detail
 62
    16
  6
CONTINUOUS
370
     5
100
AcDbLine
 10
1.83257798
 20
-5.56875826
 30
0.0
 11
1.83261177
 21
-5.56872566
 31
0.0
  0
LINE
  5
2E4
100
AcDbEntity
  8
detail
 62
    16
  6
CONTINUOUS
370
     5
100
AcDbLine
 10
1.83263851
 20
-5.56874511
 30
0.0
 11
1.83260977
 21
-5.56880396
 31
0.0
  0
LINE
  5
2E5
100
AcDbEntity
  8
detail
 62
    16
  6
CONTINUOUS
370
     5
100
AcDbLine
 10
1.83261043
 20
-5.56882979
 30
0.0
 11
1.83262628
 21
-5.56885843
 31
0.0
  0
LINE
  5
2E6
100
AcDbEntity
  8
detail
 62
    16
  6
CONTINUOUS
370
     5
100
AcDbLine
 10
1.83260059
 20
-5.56892757
 30
0.0
 11
1.83256282
 21
-5.56885932
 31
0.0
  0
LINE
  5
2E7
100
AcDbEntity
  8
detail
 62
    16
  6
CONTINUOUS
370
     5
100
AcDbLine
 10
1.83257798
 20
-5.56875826
 30
0.0
 11
1.83261177
 21
-5.56872566
 31
0.0
  0
LINE
  5
2E8
100
AcDbEntity
  8
detail
 62
    16
  6
CONTINUOUS
370
     5
100
AcDbLine
 10
1.83263851
 20
-5.56874511
 30
0.0
 11
1.83260977
 21
-5.56880396
 31
0.0
  0
LINE
  5
2E9
100
AcDbEntity
  8
detail
 62
    16
  6
CONTINUOUS
370
     5
100
AcDbLine
 10
1.83261043
 20
-5.56882979
 30
0.0
 11
1.83262628
 21
-5.56885843
 31
0.0
  0
LINE
  5
2EA
100
AcDbEntity
  8
detail
 62
    16
  6
CONTINUOUS
370
     5
100
AcDbLine
 10
1.83260059
 20
-5.56892757
 30
0.0
 11
1.83256282
 21
-5.56885932
 31
0.0
  0
LINE
  5
2EB
100
AcDbEntity
  8
detail
 62
    16
  6
CONTINUOUS
370
     5
100
AcDbLine
 10
1.83257798
 20
-5.56875826
 30
0.0
 11
1.83261177
 21
-5.56872566
 31
0.0
  0
LINE
  5
2EC
100
AcDbEntity
  8
detail
 62
    16
  6
CONTINUOUS
370
     5
100
AcDbLine
 10
1.83263851
 20
-5.56874511
 30
0.0
 11
1.83260977
 21
-5.56880396
 31
0.0
  0
LINE
  5
2ED
100
AcDbEntity
  8
detail
 62
    16
  6
CONTINUOUS
370
     5
100
AcDbLine
 10
1.83261043
 20
-5.56882979
 30
0.0
 11
1.83262628
 21
-5.56885843
 31
0.0
  0
LINE
  5
2EE
100
AcDbEntity
  8
detail
 62
    16
  6
CONTINUOUS
370
     5
100
AcDbLine
 10
1.83265645
 20
-5.56842611
 30
0.0
 11
1.83240493
 21
-5.56867762
 31
0.0
  0
LINE
  5
2EF
100
AcDbEntity
  8
detail
 62
    16
  6
CONTINUOUS
370
     5
100
AcDbLine
 10
1.83240034
 20
-5.5686834
 30
0.0
 11
1.83236994
 21
-5.56871273
 31
0.0
  0
LINE
  5
2F0
100
AcDbEntity
  8
detail
 62
    16
  6
CONTINUOUS
370
     5
100
AcDbLine
 10
1.83240034
 20
-5.5686834
 30
0.0
 11
1.83236994
 21
-5.56871273
 31
0.0
  0
LINE
  5
2F1
100
AcDbEntity
  8
detail
 62
    16
  6
CONTINUOUS
370
     5
100
AcDbLine
 10
1.83240034
 20
-5.5686834
 30
0.0
 11
1.83236994
 21
-5.56871273
 31
0.0
  0
LINE
  5
2F2
100
AcDbEntity
  8
detail
 62
    16
  6
CONTINUOUS
370
     5
100
AcDbLine
 10
1.83240034
 20
-5.5686834
 30
0.0
 11
1.83236994
 21
-5.56871273
 31
0.0
  0
LINE
  5
2F3
100
AcDbEntity
  8
detail
 62
    16
  6
CONTINUOUS
370
     5
100
AcDbLine
 10
1.83240034
 20
-5.5686834
 30
0.0
 11
1.83236994
 21
-5.56871273
 31
0.0
  0
LINE
  5
2F4
100
AcDbEntity
  8
detail
 62
    16
  6
CONTINUOUS
370
     5
100
AcDbLine
 10
1.83240034
 20
-5.5686834
 30
0.0
 11
1.83236994
 21
-5.56871273
 31
0.0
  0
LINE
  5
2F5
100
AcDbEntity
  8
detail
 62
    16
  6
CONTINUOUS
370
     5
100
AcDbLine
 10
1.83240034
 20
-5.5686834
 30
0.0
 11
1.83236994
 21
-5.56871273
 31
0.0
  0
LINE
  5
2F6
100
AcDbEntity
  8
detail
 62
    16
  6
CONTINUOUS
370
     5
100
AcDbLine
 10
1.83240034
 20
-5.5686834
 30
0.0
 11
1.83236994
 21
-5.56871273
 31
0.0
  0
LINE
  5
2F7
100
AcDbEntity
  8
detail
 62
    16
  6
CONTINUOUS
370
     5
100
AcDbLine
 10
1.83240034
 20
-5.5686834
 30
0.0
 11
1.83236994
 21
-5.56871273
 31
0.0
  0
LINE
  5
2F8
100
AcDbEntity
  8
detail
 62
    16
  6
CONTINUOUS
370
     5
100
AcDbLine
 10
1.83240034
 20
-5.5686834
 30
0.0
 11
1.83236994
 21
-5.56871273
 31
0.0
  0
LINE
  5
2F9
100
AcDbEntity
  8
detail
 62
    16
  6
CONTINUOUS
370
     5
100
AcDbLine
 10
1.83240034
 20
-5.5686834
 30
0.0
 11
1.83236994
 21
-5.56871273
 31
0.0
  0
LINE
  5
2FA
100
AcDbEntity
  8
detail
 62
    16
  6
CONTINUOUS
370
     5
100
AcDbLine
 10
1.83240034
 20
-5.5686834
 30
0.0
 11
1.83236994
 21
-5.56871273
 31
0.0
  0
LINE
  5
2FB
100
AcDbEntity
  8
detail
 62
    16
  6
CONTINUOUS
370
     5
100
AcDbLine
 10
1.83240034
 20
-5.5686834
 30
0.0
 11
1.83236994
 21
-5.56871273
 31
0.0
  0
LINE
  5
2FC
100
AcDbEntity
  8
detail
 62
    16
  6
CONTINUOUS
370
     5
100
AcDbLine
 10
1.83240034
 20
-5.5686834
 30
0.0
 11
1.83236994
 21
-5.56871273
 31
0.0
  0
LINE
  5
2FD
100
AcDbEntity
  8
detail
 62
    16
  6
CONTINUOUS
370
     5
100
AcDbLine
 10
1.83240034
 20
-5.5686834
 30
0.0
 11
1.83236994
 21
-5.56871273
 31
0.0
  0
LINE
  5
2FE
100
AcDbEntity
  8
detail
 62
    16
  6
CONTINUOUS
370
     5
100
AcDbLine
 10
1.83240034
 20
-5.5686834
 30
0.0
 11
1.83236994
 21
-5.56871273
 31
0.0
  0
LINE
  5
2FF
100
AcDbEntity
  8
detail
 62
    16
  6
CONTINUOUS
370
     5
100
AcDbLine
 10
1.83343666
 20
-5.5681849
 30
0.0
 11
1.83347648
 21
-5.56821073
 31
0.0
  0
LINE
  5
300
100
AcDbEntity
  8
detail
 62
    16
  6
CONTINUOUS
370
     5
100
AcDbLine
 10
1.83918848
 20
-5.57360216
 30
0.0
 11
1.83918848
 21
-5.57262237
 31
0.0
  0
LINE
  5
301
100
AcDbEntity
  8
detail
 62
    16
  6
CONTINUOUS
370
     5
100
AcDbLine
 10
1.83918848
 20
-5.57360216
 30
0.0
 11
1.84016827
 21
-5.57360216
 31
0.0
  0
LINE
  5
302
100
AcDbEntity
  8
detail
 62
    16
  6
CONTINUOUS
370
     5
100
AcDbLine
 10
1.84016827
 20
-5.57360216
 30
0.0
 11
1.84016827
 21
-5.57262237
 31
0.0
  0
LINE
  5
303
100
AcDbEntity
  8
detail
 62
    16
  6
CONTINUOUS
370
     5
100
AcDbLine
 10
1.84016827
 20
-5.57262237
 30
0.0
 11
1.83918848
 21
-5.57262237
 31
0.0
  0
LINE
  5
304
100
AcDbEntity
  8
detail
 62
    16
  6
CONTINUOUS
370
     5
100
AcDbLine
 10
1.83967837
 20
-5.57311227
 30
0.0
 11
1.83967837
 21
-5.57311227
 31
0.0
  0
LINE
  5
305
100
AcDbEntity
  8
detail
 62
    16
  6
CONTINUOUS
370
     5
100
AcDbLine
 10
1.83918848
 20
-5.57360216
 30
0.0
 11
1.83918848
 21
-5.57262237
 31
0.0
  0
LINE
  5
306
100
AcDbEntity
  8
detail
 62
    16
  6
CONTINUOUS
370
     5
100
AcDbLine
 10
1.83918848
 20
-5.57360216
 30
0.0
 11
1.84016827
 21
-5.57360216
 31
0.0
  0
LINE
  5
307
100
AcDbEntity
  8
detail
 62
    16
  6
CONTINUOUS
370
     5
100
AcDbLine
 10
1.84016827
 20
-5.57360216
 30
0.0
 11
1.84016827
 21
-5.57262237
 31
0.0
  0
LINE
  5
308
100
AcDbEntity
  8
detail
 62
    16
  6
CONTINUOUS
370
     5
100
AcDbLine
 10
1.84016827
 20
-5.57262237
 30
0.0
 11
1.83918848
 21
-5.57262237
 31
0.0
  0
LINE
  5
309
100
AcDbEntity
  8
detail
 62
    16
  6
CONTINUOUS
370
     5
100
AcDbLine
 10
1.83967837
 20
-5.57311227
 30
0.0
 11
1.83967837
 21
-5.57311227
 31
0.0
  0
LINE
  5
30A
100
AcDbEntity
  8
detail
 62
    16
  6
CONTINUOUS
370
     5
100
AcDbLine
 10
1.83918848
 20
-5.57360216
 30
0.0
 11
1.83918848
 21
-5.57262237
 31
0.0
  0
LINE
  5
30B
100
AcDbEntity
  8
detail
 62
    16
  6
CONTINUOUS
370
     5
100
AcDbLine
 10
1.83918848
 20
-5.57360216
 30
0.0
 11
1.84016827
 21
-5.57360216
 31
0.0
  0
LINE
  5
30C
100
AcDbEntity
  8
detail
 62
    16
  6
CONTINUOUS
370
     5
100
AcDbLine
 10
1.84016827
 20
-5.57360216
 30
0.0
 11
1.84016827
 21
-5.57262237
 31
0.0
  0
LINE
  5
30D
100
AcDbEntity
  8
detail
 62
    16
  6
CONTINUOUS
370
     5
100
AcDbLine
 10
1.84016827
 20
-5.57262237
 30
0.0
 11
1.83918848
 21
-5.57262237
 31
0.0
  0
LINE
  5
30E
100
AcDbEntity
  8
detail
 62
    16
  6
CONTINUOUS
370
     5
100
AcDbLine
 10
1.83967837
 20
-5.57311227
 30
0.0
 11
1.83967837
 21
-5.57311227
 31
0.0
  0
LINE
  5
30F
100
AcDbEntity
  8
detail
 62
    16
  6
CONTINUOUS
370
     5
100
AcDbLine
 10
1.83918848
 20
-5.57360216
 30
0.0
 11
1.83918848
 21
-5.57262237
 31
0.0
  0
LINE
  5
310
100
AcDbEntity
  8
detail
 62
    16
  6
CONTINUOUS
370
     5
100
AcDbLine
 10
1.83918848
 20
-5.57360216
 30
0.0
 11
1.84016827
 21
-5.57360216
 31
0.0
  0
LINE
  5
311
100
AcDbEntity
  8
detail
 62
    16
  6
CONTINUOUS
370
     5
100
AcDbLine
 10
1.84016827
 20
-5.57360216
 30
0.0
 11
1.84016827
 21
-5.57262237
 31
0.0
  0
LINE
  5
312
100
AcDbEntity
  8
detail
 62
    16
  6
CONTINUOUS
370
     5
100
AcDbLine
 10
1.84016827
 20
-5.57262237
 30
0.0
 11
1.83918848
 21
-5.57262237
 31
0.0
  0
LINE
  5
313
100
AcDbEntity
  8
detail
 62
    16
  6
CONTINUOUS
370
     5
100
AcDbLine
 10
1.84033808
 20
-5.5761565
 30
0.0
 11
1.84147155
 21
-5.57410115
 31
0.0
  0
LINE
  5
314
100
AcDbEntity
  8
detail
 62
    16
  6
CONTINUOUS
370
     5
100
AcDbLine
 10
1.83901867
 20
-5.5761565
 30
0.0
 11
1.8378852
 21
-5.57410115
 31
0.0
  0
LINE
  5
315
100
AcDbEntity
  8
detail
 62
    16
  6
CONTINUOUS
370
     5
100
AcDbLine
 10
1.84016827
 20
-5.57360216
 30
0.0
 11
1.83918848
 21
-5.57262237
 31
0.0
  0
LINE
  5
316
100
AcDbEntity
  8
detail
 62
    16
  6
CONTINUOUS
370
     5
100
AcDbLine
 10
1.84016827
 20
-5.57262237
 30
0.0
 11
1.83918848
 21
-5.57360216
 31
0.0
  0
LINE
  5
317
100
AcDbEntity
  8
detail
 62
    16
  6
CENTER
370
     5
100
AcDbLine
 10
1.83829359
 20
-5.57311227
 30
0.0
 11
1.84106315
 21
-5.57311227
 31
0.0
  0
LINE
  5
318
100
AcDbEntity
  8
detail
 62
    16
  6
CENTER
370
     5
100
AcDbLine
 10
1.83967837
 20
-5.57447778
 30
0.0
 11
1.83967837
 21
-5.57176701
 31
0.0
  0
LINE
  5
319
100
AcDbEntity
  8
detail
 62
    16
  6
CENTER
370
     5
100
AcDbLine
 10
1.83562556
 20
-5.5776273
 30
0.0
 11
1.83473729
 21
-5.5776273
 31
0.0
  0
LINE
  5
31A
100
AcDbEntity
  8
detail
 62
    16
  6
CENTER
370
     5
100
AcDbLine
 10
1.8351764
 20
-5.57805439
 30
0.0
 11
1.8351764
 21
-5.57718388
 31
0.0
  0
LINE
  5
31B
100
AcDbEntity
  8
detail
 62
    16
  6
CONTINUOUS
370
     5
100
AcDbLine
 10
1.8369264
 20
-5.58017094
 30
0.0
 11
1.8334264
 21
-5.58017094
 31
0.0
  0
LINE
  5
31C
100
AcDbEntity
  8
detail
 62
    16
  6
CONTINUOUS
370
     5
100
AcDbLine
 10
1.83360475
 20
-5.57940879
 30
0.0
 11
1.83474702
 21
-5.57731277
 31
0.0
  0
LINE
  5
31D
100
AcDbEntity
  8
detail
 62
    16
  6
CONTINUOUS
370
     5
100
AcDbLine
 10
1.83674806
 20
-5.57940879
 30
0.0
 11
1.83560579
 21
-5.57731277
 31
0.0
  0
LINE
  5
31E
100
AcDbEntity
  8
detail
 62
    16
  6
CONTINUOUS
370
     5
100
AcDbLine
 10
1.8360288
 20
-5.58441593
 30
0.0
 11
1.8351764
 21
-5.58441593
 31
0.0
  0
LINE
  5
31F
100
AcDbEntity
  8
detail
 62
    16
  6
CONTINUOUS
370
     5
100
AcDbLine
 10
1.8339381
 20
-5.58017094
 30
0.0
 11
1.8336264
 21
-5.58017094
 31
0.0
  0
LINE
  5
320
100
AcDbEntity
  8
detail
 62
    16
  6
CONTINUOUS
370
     5
100
AcDbLine
 10
1.8351764
 20
-5.58431593
 30
0.0
 11
1.83622567
 21
-5.58431593
 31
0.0
  0
LINE
  5
321
100
AcDbEntity
  8
detail
 62
    16
  6
CONTINUOUS
370
     5
100
AcDbLine
 10
1.83380933
 20
-5.58024418
 30
0.0
 11
1.8339381
 21
-5.58024418
 31
0.0
  0
LINE
  5
322
100
AcDbEntity
  8
detail
 62
    16
  6
CONTINUOUS
370
     5
100
AcDbLine
 10
1.8368264
 20
-5.58041616
 30
0.0
 11
1.8368264
 21
-5.58413893
 31
0.0
  0
LINE
  5
323
100
AcDbEntity
  8
detail
 62
    16
  6
CONTINUOUS
370
     5
100
AcDbLine
 10
1.83441267
 20
-5.58021616
 30
0.0
 11
1.8367264
 21
-5.58021616
 31
0.0
  0
LINE
  5
324
100
AcDbEntity
  8
detail
 62
    16
  6
CONTINUOUS
370
     5
100
AcDbLine
 10
1.83380933
 20
-5.580344
 30
0.0
 11
1.83380933
 21
-5.58024418
 31
0.0
  0
LINE
  5
325
100
AcDbEntity
  8
detail
 62
    16
  6
CONTINUOUS
370
     5
100
AcDbLine
 10
1.8369264
 20
-5.58022094
 30
0.0
 11
1.8369264
 21
-5.58413893
 31
0.0
  0
LINE
  5
326
100
AcDbEntity
  8
detail
 62
    16
  6
CONTINUOUS
370
     5
100
AcDbLine
 10
1.8335264
 20
-5.58477135
 30
0.0
 11
1.8335264
 21
-5.58432307
 31
0.0
  0
LINE
  5
327
100
AcDbEntity
  8
detail
 62
    16
  6
CONTINUOUS
370
     5
100
AcDbLine
 10
1.83611283
 20
-5.58446937
 30
0.0
 11
1.83625313
 21
-5.58438658
 31
0.0
  0
LINE
  5
328
100
AcDbEntity
  8
detail
 62
    16
  6
CONTINUOUS
370
     5
100
AcDbLine
 10
1.8334264
 20
-5.58037094
 30
0.0
 11
1.8334264
 21
-5.58477135
 31
0.0
  0
LINE
  5
329
100
AcDbEntity
  8
detail
 62
    16
  6
CONTINUOUS
370
     5
100
AcDbLine
 10
1.83546994
 20
-5.58482094
 30
0.0
 11
1.83624439
 21
-5.58482094
 31
0.0
  0
LINE
  5
32A
100
AcDbEntity
  8
detail
 62
    16
  6
CONTINUOUS
370
     5
100
AcDbLine
 10
1.8335264
 20
-5.58037094
 30
0.0
 11
1.8335264
 21
-5.58446353
 31
0.0
  0
LINE
  5
32B
100
AcDbEntity
  8
detail
 62
    16
  6
CONTINUOUS
370
     5
100
AcDbLine
 10
1.83598551
 20
-5.58472094
 30
0.0
 11
1.83546994
 21
-5.58472094
 31
0.0
  0
LINE
  5
32C
100
AcDbEntity
  8
detail
 62
    16
  6
CONTINUOUS
370
     5
100
AcDbLine
 10
1.83612248
 20
-5.58472094
 30
0.0
 11
1.83624439
 21
-5.58472094
 31
0.0
  0
LINE
  5
32D
100
AcDbEntity
  8
detail
 62
    16
  6
CONTINUOUS
370
     5
100
AcDbLine
 10
1.83443466
 20
-5.58031616
 30
0.0
 11
1.8367264
 21
-5.58031616
 31
0.0
  0
LINE
  5
32E
100
AcDbEntity
  8
detail
 62
    16
  6
CONTINUOUS
370
     5
100
AcDbLine
 10
1.83420956
 20
-5.58017094
 30
0.0
 11
1.83433881
 21
-5.58017094
 31
0.0
  0
LINE
  5
32F
100
AcDbEntity
  8
detail
 62
    16
  6
CONTINUOUS
370
     5
100
AcDbLine
 10
1.83380884
 20
-5.580444
 30
0.0
 11
1.83433833
 21
-5.580444
 31
0.0
  0
LINE
  5
330
100
AcDbEntity
  8
detail
 62
    16
  6
CONTINUOUS
370
     5
100
AcDbLine
 10
1.83683229
 20
-5.58024649
 30
0.0
 11
1.83683229
 21
-5.58020127
 31
0.0
  0
LINE
  5
331
100
AcDbEntity
  8
detail
 62
    16
  6
CONTINUOUS
370
     5
100
AcDbLine
 10
1.83433833
 20
-5.58024418
 30
0.0
 11
1.83420956
 21
-5.58024418
 31
0.0
  0
LINE
  5
332
100
AcDbEntity
  8
detail
 62
    16
  6
CONTINUOUS
370
     5
100
AcDbLine
 10
1.8354764
 20
-5.58197115
 30
0.0
 11
1.8348764
 21
-5.58197115
 31
0.0
  0
LINE
  5
333
100
AcDbEntity
  8
detail
 62
    16
  6
CONTINUOUS
370
     5
100
AcDbLine
 10
1.8348764
 20
-5.58197115
 30
0.0
 11
1.8348764
 21
-5.58257115
 31
0.0
  0
LINE
  5
334
100
AcDbEntity
  8
detail
 62
    16
  6
CONTINUOUS
370
     5
100
AcDbLine
 10
1.8348764
 20
-5.58257115
 30
0.0
 11
1.8354764
 21
-5.58257115
 31
0.0
  0
LINE
  5
335
100
AcDbEntity
  8
detail
 62
    16
  6
CONTINUOUS
370
     5
100
AcDbLine
 10
1.8354764
 20
-5.58197115
 30
0.0
 11
1.8354764
 21
-5.58257115
 31
0.0
  0
LINE
  5
336
100
AcDbEntity
  8
detail
 62
    16
  6
CONTINUOUS
370
     5
100
AcDbLine
 10
1.8354764
 20
-5.58197115
 30
0.0
 11
1.8348764
 21
-5.58257115
 31
0.0
  0
LINE
  5
337
100
AcDbEntity
  8
detail
 62
    16
  6
CONTINUOUS
370
     5
100
AcDbLine
 10
1.8354764
 20
-5.58257115
 30
0.0
 11
1.8348764
 21
-5.58197115
 31
0.0
  0
LINE
  5
338
100
AcDbEntity
  8
detail
 62
    16
  6
CONTINUOUS
370
     5
100
AcDbLine
 10
1.83442173
 20
-5.58034961
 30
0.0
 11
1.83442173
 21
-5.58036108
 31
0.0
  0
LINE
  5
339
100
AcDbEntity
  8
detail
 62
    16
  6
CONTINUOUS
370
     5
100
AcDbLine
 10
1.8339381
 20
-5.58017094
 30
0.0
 11
1.8339381
 21
-5.58024418
 31
0.0
  0
LINE
  5
33A
100
AcDbEntity
  8
detail
 62
    16
  6
CONTINUOUS
370
     5
100
AcDbLine
 10
1.83433833
 20
-5.580344
 30
0.0
 11
1.83433833
 21
-5.58024418
 31
0.0
  0
LINE
  5
33B
100
AcDbEntity
  8
detail
 62
    16
  6
CONTINUOUS
370
     5
100
AcDbLine
 10
1.83420956
 20
-5.58017094
 30
0.0
 11
1.83420956
 21
-5.58024418
 31
0.0
  0
LINE
  5
33C
100
AcDbEntity
  8
detail
 62
    16
  6
CONTINUOUS
370
     5
100
AcDbLine
 10
1.83380933
 20
-5.580344
 30
0.0
 11
1.83433833
 21
-5.580344
 31
0.0
  0
LINE
  5
33D
100
AcDbEntity
  8
detail
 62
    16
  6
CONTINUOUS
370
     5
100
AcDbLine
 10
1.8358264
 20
-5.58489618
 30
0.0
 11
1.8334264
 21
-5.58489618
 31
0.0
  0
LINE
  5
33E
100
AcDbEntity
  8
detail
 62
    16
  6
CONTINUOUS
370
     5
100
AcDbLine
 10
1.83160733
 20
-5.58258734
 30
0.0
 11
1.83167878
 21
-5.58309158
 31
0.0
  0
LINE
  5
33F
100
AcDbEntity
  8
detail
 62
    16
  6
CONTINUOUS
370
     5
100
AcDbLine
 10
1.83672741
 20
-5.5743346
 30
0.0
 11
1.83672741
 21
-5.57188993
 31
0.0
  0
LINE
  5
340
100
AcDbEntity
  8
detail
 62
    16
  6
CONTINUOUS
370
     5
100
AcDbLine
 10
1.83881692
 20
-5.57733919
 30
0.0
 11
1.83709192
 21
-5.57733919
 31
0.0
  0
LINE
  5
341
100
AcDbEntity
  8
detail
 62
    16
  6
CONTINUOUS
370
     5
100
AcDbLine
 10
1.84609192
 20
-5.57733919
 30
0.0
 11
1.84436692
 21
-5.57733919
 31
0.0
  0
LINE
  5
342
100
AcDbEntity
  8
detail
 62
    16
  6
CONTINUOUS
370
     5
100
AcDbLine
 10
1.84111692
 20
-5.57733919
 30
0.0
 11
1.84206692
 21
-5.57733919
 31
0.0
  0
LINE
  5
343
100
AcDbEntity
  8
detail
 62
    16
  6
CONTINUOUS
370
     5
100
AcDbLine
 10
1.83709192
 20
-5.57701419
 30
0.0
 11
1.84609192
 21
-5.57701419
 31
0.0
  0
LINE
  5
344
100
AcDbEntity
  8
detail
 62
    16
  6
CONTINUOUS
370
     5
100
AcDbLine
 10
1.83709192
 20
-5.57833919
 30
0.0
 11
1.83709192
 21
-5.57788919
 31
0.0
  0
LINE
  5
345
100
AcDbEntity
  8
detail
 62
    16
  6
CONTINUOUS
370
     5
100
AcDbLine
 10
1.83709192
 20
-5.57701419
 30
0.0
 11
1.83709192
 21
-5.57733919
 31
0.0
  0
LINE
  5
346
100
AcDbEntity
  8
detail
 62
    16
  6
CONTINUOUS
370
     5
100
AcDbLine
 10
1.84609192
 20
-5.57733919
 30
0.0
 11
1.84609192
 21
-5.57701419
 31
0.0
  0
LINE
  5
347
100
AcDbEntity
  8
detail
 62
    16
  6
CONTINUOUS
370
     5
100
AcDbLine
 10
1.83709192
 20
-5.5863113
 30
0.0
 11
1.84609192
 21
-5.5863113
 31
0.0
  0
LINE
  5
348
100
AcDbEntity
  8
detail
 62
    16
  6
CONTINUOUS
370
     5
100
AcDbLine
 10
1.83769192
 20
-5.58676021
 30
0.0
 11
1.83769192
 21
-5.5858624
 31
0.0
  0
LINE
  5
349
100
AcDbEntity
  8
detail
 62
    16
  6
CONTINUOUS
370
     5
100
AcDbLine
 10
1.84559192
 20
-5.58676021
 30
0.0
 11
1.84559192
 21
-5.5858624
 31
0.0
  0
LINE
  5
34A
100
AcDbEntity
  8
detail
 62
    16
  6
CONTINUOUS
370
     5
100
AcDbLine
 10
1.84609192
 20
-5.5864813
 30
0.0
 11
1.84489566
 21
-5.5864813
 31
0.0
  0
LINE
  5
34B
100
AcDbEntity
  8
detail
 62
    16
  6
CONTINUOUS
370
     5
100
AcDbLine
 10
1.83801192
 20
-5.5863113
 30
0.0
 11
1.83801192
 21
-5.5860113
 31
0.0
  0
LINE
  5
34C
100
AcDbEntity
  8
detail
 62
    16
  6
CONTINUOUS
370
     5
100
AcDbLine
 10
1.83801192
 20
-5.5860113
 30
0.0
 11
1.83737192
 21
-5.5860113
 31
0.0
  0
LINE
  5
34D
100
AcDbEntity
  8
detail
 62
    16
  6
CONTINUOUS
370
     5
100
AcDbLine
 10
1.83737192
 20
-5.5863113
 30
0.0
 11
1.83737192
 21
-5.5860113
 31
0.0
  0
LINE
  5
34E
100
AcDbEntity
  8
detail
 62
    16
  6
CONTINUOUS
370
     5
100
AcDbLine
 10
1.84591192
 20
-5.5863113
 30
0.0
 11
1.84591192
 21
-5.5860113
 31
0.0
  0
LINE
  5
34F
100
AcDbEntity
  8
detail
 62
    16
  6
CONTINUOUS
370
     5
100
AcDbLine
 10
1.84591192
 20
-5.5860113
 30
0.0
 11
1.84527192
 21
-5.5860113
 31
0.0
  0
LINE
  5
350
100
AcDbEntity
  8
detail
 62
    16
  6
CONTINUOUS
370
     5
100
AcDbLine
 10
1.84527192
 20
-5.5863113
 30
0.0
 11
1.84527192
 21
-5.5860113
 31
0.0
  0
LINE
  5
351
100
AcDbEntity
  8
detail
 62
    16
  6
CONTINUOUS
370
     5
100
AcDbLine
 10
1.83709192
 20
-5.5864813
 30
0.0
 11
1.83828819
 21
-5.5864813
 31
0.0
  0
LINE
  5
352
100
AcDbEntity
  8
detail
 62
    16
  6
CONTINUOUS
370
     5
100
AcDbLine
 10
1.84493557
 20
-5.58783529
 30
0.0
 11
1.84484552
 21
-5.5865313
 31
0.0
  0
LINE
  5
353
100
AcDbEntity
  8
detail
 62
    16
  6
CONTINUOUS
370
     5
100
AcDbLine
 10
1.83824828
 20
-5.58783529
 30
0.0
 11
1.83833833
 21
-5.5865313
 31
0.0
  0
LINE
  5
354
100
AcDbEntity
  8
detail
 62
    16
  6
CONTINUOUS
370
     5
100
AcDbLine
 10
1.83709192
 20
-5.5864313
 30
0.0
 11
1.84609192
 21
-5.5864313
 31
0.0
  0
LINE
  5
355
100
AcDbEntity
  8
detail
 62
    16
  6
CONTINUOUS
370
     5
100
AcDbLine
 10
1.83881692
 20
-5.57833919
 30
0.0
 11
1.83709192
 21
-5.57833919
 31
0.0
  0
LINE
  5
356
100
AcDbEntity
  8
detail
 62
    16
  6
CONTINUOUS
370
     5
100
AcDbLine
 10
1.83881692
 20
-5.57888919
 30
0.0
 11
1.83709192
 21
-5.57888919
 31
0.0
  0
LINE
  5
357
100
AcDbEntity
  8
detail
 62
    16
  6
CONTINUOUS
370
     5
100
AcDbLine
 10
1.83709192
 20
-5.58088919
 30
0.0
 11
1.83881692
 21
-5.58088919
 31
0.0
  0
LINE
  5
358
100
AcDbEntity
  8
detail
 62
    16
  6
CONTINUOUS
370
     5
100
AcDbLine
 10
1.83709192
 20
-5.58033919
 30
0.0
 11
1.83881692
 21
-5.58033919
 31
0.0
  0
LINE
  5
359
100
AcDbEntity
  8
detail
 62
    16
  6
CONTINUOUS
370
     5
100
AcDbLine
 10
1.83709192
 20
-5.57988919
 30
0.0
 11
1.83881692
 21
-5.57988919
 31
0.0
  0
LINE
  5
35A
100
AcDbEntity
  8
detail
 62
    16
  6
CONTINUOUS
370
     5
100
AcDbLine
 10
1.83709192
 20
-5.57933919
 30
0.0
 11
1.83881692
 21
-5.57933919
 31
0.0
  0
LINE
  5
35B
100
AcDbEntity
  8
detail
 62
    16
  6
CONTINUOUS
370
     5
100
AcDbLine
 10
1.84609192
 20
-5.57833919
 30
0.0
 11
1.84436692
 21
-5.57833919
 31
0.0
  0
LINE
  5
35C
100
AcDbEntity
  8
detail
 62
    16
  6
CONTINUOUS
370
     5
100
AcDbLine
 10
1.84609192
 20
-5.57888919
 30
0.0
 11
1.84436692
 21
-5.57888919
 31
0.0
  0
LINE
  5
35D
100
AcDbEntity
  8
detail
 62
    16
  6
CONTINUOUS
370
     5
100
AcDbLine
 10
1.84436692
 20
-5.57933919
 30
0.0
 11
1.84609192
 21
-5.57933919
 31
0.0
  0
LINE
  5
35E
100
AcDbEntity
  8
detail
 62
    16
  6
CONTINUOUS
370
     5
100
AcDbLine
 10
1.84409192
 20
-5.58061419
 30
0.0
 11
1.84409192
 21
-5.58061419
 31
0.0
  0
LINE
  5
35F
100
AcDbEntity
  8
detail
 62
    16
  6
CONTINUOUS
370
     5
100
AcDbLine
 10
1.84609192
 20
-5.58033919
 30
0.0
 11
1.84436692
 21
-5.58033919
 31
0.0
  0
LINE
  5
360
100
AcDbEntity
  8
detail
 62
    16
  6
CONTINUOUS
370
     5
100
AcDbLine
 10
1.84609192
 20
-5.58088919
 30
0.0
 11
1.84436692
 21
-5.58088919
 31
0.0
  0
LINE
  5
361
100
AcDbEntity
  8
detail
 62
    16
  6
CONTINUOUS
370
     5
100
AcDbLine
 10
1.84609192
 20
-5.57988919
 30
0.0
 11
1.84436692
 21
-5.57988919
 31
0.0
  0
LINE
  5
362
100
AcDbEntity
  8
detail
 62
    16
  6
CONTINUOUS
370
     5
100
AcDbLine
 10
1.84111692
 20
-5.57933919
 30
0.0
 11
1.84206692
 21
-5.57933919
 31
0.0
  0
LINE
  5
363
100
AcDbEntity
  8
detail
 62
    16
  6
CONTINUOUS
370
     5
100
AcDbLine
 10
1.84111692
 20
-5.57988919
 30
0.0
 11
1.84206692
 21
-5.57988919
 31
0.0
  0
LINE
  5
364
100
AcDbEntity
  8
detail
 62
    16
  6
CONTINUOUS
370
     5
100
AcDbLine
 10
1.84111692
 20
-5.58033919
 30
0.0
 11
1.84206692
 21
-5.58033919
 31
0.0
  0
LINE
  5
365
100
AcDbEntity
  8
detail
 62
    16
  6
CONTINUOUS
370
     5
100
AcDbLine
 10
1.84111692
 20
-5.58088919
 30
0.0
 11
1.84206692
 21
-5.58088919
 31
0.0
  0
LINE
  5
366
100
AcDbEntity
  8
detail
 62
    16
  6
CONTINUOUS
370
     5
100
AcDbLine
 10
1.84111692
 20
-5.57833919
 30
0.0
 11
1.84206692
 21
-5.57833919
 31
0.0
  0
LINE
  5
367
100
AcDbEntity
  8
detail
 62
    16
  6
CONTINUOUS
370
     5
100
AcDbLine
 10
1.84111692
 20
-5.57888919
 30
0.0
 11
1.84206692
 21
-5.57888919
 31
0.0
  0
LINE
  5
368
100
AcDbEntity
  8
detail
 62
    16
  6
CONTINUOUS
370
     5
100
AcDbLine
 10
1.83709192
 20
-5.58033919
 30
0.0
 11
1.83709192
 21
-5.57988919
 31
0.0
  0
LINE
  5
369
100
AcDbEntity
  8
detail
 62
    16
  6
CONTINUOUS
370
     5
100
AcDbLine
 10
1.83709192
 20
-5.57933919
 30
0.0
 11
1.83709192
 21
-5.57888919
 31
0.0
  0
LINE
  5
36A
100
AcDbEntity
  8
detail
 62
    16
  6
CONTINUOUS
370
     5
100
AcDbLine
 10
1.84609192
 20
-5.57888919
 30
0.0
 11
1.84609192
 21
-5.57933919
 31
0.0
  0
LINE
  5
36B
100
AcDbEntity
  8
detail
 62
    16
  6
CONTINUOUS
370
     5
100
AcDbLine
 10
1.84609192
 20
-5.58033919
 30
0.0
 11
1.84609192
 21
-5.57988919
 31
0.0
  0
LINE
  5
36C
100
AcDbEntity
  8
detail
 62
    16
  6
CONTINUOUS
370
     5
100
AcDbLine
 10
1.83709192
 20
-5.5864313
 30
0.0
 11
1.83709192
 21
-5.58088919
 31
0.0
  0
LINE
  5
36D
100
AcDbEntity
  8
detail
 62
    16
  6
CONTINUOUS
370
     5
100
AcDbLine
 10
1.84609192
 20
-5.5864313
 30
0.0
 11
1.84609192
 21
-5.58088919
 31
0.0
  0
LINE
  5
36E
100
AcDbEntity
  8
detail
 62
    16
  6
CONTINUOUS
370
     5
100
AcDbLine
 10
1.84609192
 20
-5.58873166
 30
0.0
 11
1.83709192
 21
-5.58873166
 31
0.0
  0
LINE
  5
36F
100
AcDbEntity
  8
detail
 62
    16
  6
CONTINUOUS
370
     5
100
AcDbLine
 10
1.83709192
 20
-5.58873166
 30
0.0
 11
1.83709192
 21
-5.58868501
 31
0.0
  0
LINE
  5
370
100
AcDbEntity
  8
detail
 62
    16
  6
CONTINUOUS
370
     5
100
AcDbLine
 10
1.83709192
 20
-5.58868501
 30
0.0
 11
1.8371516
 21
-5.58858166
 31
0.0
  0
LINE
  5
371
100
AcDbEntity
  8
detail
 62
    16
  6
CONTINUOUS
370
     5
100
AcDbLine
 10
1.84609192
 20
-5.58873166
 30
0.0
 11
1.84609192
 21
-5.58868501
 31
0.0
  0
LINE
  5
372
100
AcDbEntity
  8
detail
 62
    16
  6
CONTINUOUS
370
     5
100
AcDbLine
 10
1.84609192
 20
-5.58868501
 30
0.0
 11
1.84603225
 21
-5.58858166
 31
0.0
  0
LINE
  5
373
100
AcDbEntity
  8
detail
 62
    16
  6
CONTINUOUS
370
     5
100
AcDbLine
 10
1.84603225
 20
-5.58858166
 30
0.0
 11
1.8371516
 21
-5.58858166
 31
0.0
  0
LINE
  5
374
100
AcDbEntity
  8
detail
 62
    16
  6
CONTINUOUS
370
     5
100
AcDbLine
 10
1.8392557
 20
-5.5873059
 30
0.0
 11
1.8392557
 21
-5.58858166
 31
0.0
  0
LINE
  5
375
100
AcDbEntity
  8
detail
 62
    16
  6
CONTINUOUS
370
     5
100
AcDbLine
 10
1.8392557
 20
-5.5873059
 30
0.0
 11
1.83879243
 21
-5.5873059
 31
0.0
  0
LINE
  5
376
100
AcDbEntity
  8
detail
 62
    16
  6
CONTINUOUS
370
     5
100
AcDbLine
 10
1.8391557
 20
-5.5874059
 30
0.0
 11
1.8391557
 21
-5.58858166
 31
0.0
  0
LINE
  5
377
100
AcDbEntity
  8
detail
 62
    16
  6
CONTINUOUS
370
     5
100
AcDbLine
 10
1.84405512
 20
-5.5874059
 30
0.0
 11
1.84405512
 21
-5.58858166
 31
0.0
  0
LINE
  5
378
100
AcDbEntity
  8
detail
 62
    16
  6
CONTINUOUS
370
     5
100
AcDbLine
 10
1.83856782
 20
-5.5874059
 30
0.0
 11
1.8391557
 21
-5.58681802
 31
0.0
  0
LINE
  5
379
100
AcDbEntity
  8
detail
 62
    16
  6
CONTINUOUS
370
     5
100
AcDbLine
 10
1.8391557
 20
-5.5874059
 30
0.0
 11
1.83856782
 21
-5.5874059
 31
0.0
  0
LINE
  5
37A
100
AcDbEntity
  8
detail
 62
    16
  6
CONTINUOUS
370
     5
100
AcDbLine
 10
1.84464299
 20
-5.5874059
 30
0.0
 11
1.84405512
 21
-5.58681802
 31
0.0
  0
LINE
  5
37B
100
AcDbEntity
  8
detail
 62
    16
  6
CONTINUOUS
370
     5
100
AcDbLine
 10
1.84405512
 20
-5.5874059
 30
0.0
 11
1.84464299
 21
-5.5874059
 31
0.0
  0
LINE
  5
37C
100
AcDbEntity
  8
detail
 62
    16
  6
CONTINUOUS
370
     5
100
AcDbLine
 10
1.83879243
 20
-5.58730825
 30
0.0
 11
1.83921918
 21
-5.5868815
 31
0.0
  0
LINE
  5
37D
100
AcDbEntity
  8
detail
 62
    16
  6
CONTINUOUS
370
     5
100
AcDbLine
 10
1.84395515
 20
-5.5873059
 30
0.0
 11
1.84395515
 21
-5.58858166
 31
0.0
  0
LINE
  5
37E
100
AcDbEntity
  8
detail
 62
    16
  6
CONTINUOUS
370
     5
100
AcDbLine
 10
1.84395515
 20
-5.5873059
 30
0.0
 11
1.84441841
 21
-5.5873059
 31
0.0
  0
LINE
  5
37F
100
AcDbEntity
  8
detail
 62
    16
  6
CONTINUOUS
370
     5
100
AcDbLine
 10
1.84441841
 20
-5.58730825
 30
0.0
 11
1.84399167
 21
-5.5868815
 31
0.0
  0
LINE
  5
380
100
AcDbEntity
  8
detail
 62
    16
  6
CONTINUOUS
370
     5
100
AcDbLine
 10
1.83160733
 20
-5.58258734
 30
0.0
 11
1.83160733
 21
-5.56514097
 31
0.0
  0
LINE
  5
381
100
AcDbEntity
  8
detail
 62
    16
  6
CONTINUOUS
370
     5
100
AcDbLine
 10
1.84150443
 20
-5.57059616
 30
0.0
 11
1.84215693
 21
-5.57124865
 31
0.0
  0
LINE
  5
382
100
AcDbEntity
  8
detail
 62
    16
  6
CONTINUOUS
370
     5
100
AcDbLine
 10
1.84099094
 20
-5.57019789
 30
0.0
 11
1.84215693
 21
-5.57136388
 31
0.0
  0
LINE
  5
383
100
AcDbEntity
  8
detail
 62
    16
  6
CONTINUOUS
370
     5
100
AcDbLine
 10
1.84197114
 20
-5.57078195
 30
0.0
 11
1.84157844
 21
-5.57117465
 31
0.0
  0
LINE
  5
384
100
AcDbEntity
  8
detail
 62
    16
  6
CONTINUOUS
370
     5
100
AcDbLine
 10
1.84103111
 20
-5.57032926
 30
0.0
 11
1.84211133
 21
-5.57140948
 31
0.0
  0
LINE
  5
385
100
AcDbEntity
  8
detail
 62
    16
  6
CONTINUOUS
370
     5
100
AcDbLine
 10
1.84215693
 20
-5.57136388
 30
0.0
 11
1.84210853
 21
-5.57141227
 31
0.0
  0
LINE
  5
386
100
AcDbEntity
  8
detail
 62
    16
  6
CONTINUOUS
370
     5
100
AcDbLine
 10
1.83200357
 20
-5.57303998
 30
0.0
 11
1.83198924
 21
-5.57266277
 31
0.0
  0
LINE
  5
387
100
AcDbEntity
  8
detail
 62
    16
  6
CONTINUOUS
370
     5
100
AcDbLine
 10
1.83197282
 20
-5.57311485
 30
0.0
 11
1.83198944
 21
-5.57265727
 31
0.0
  0
LINE
  5
388
100
AcDbEntity
  8
detail
 62
    16
  6
CONTINUOUS
370
     5
100
AcDbLine
 10
1.83186755
 20
-5.57321147
 30
0.0
 11
1.83194405
 21
-5.57316428
 31
0.0
  0
LINE
  5
389
100
AcDbEntity
  8
detail
 62
    16
  6
CONTINUOUS
370
     5
100
AcDbLine
 10
1.83196561
 20
-5.57680028
 30
0.0
 11
1.83197483
 21
-5.57627885
 31
0.0
  0
LINE
  5
38A
100
AcDbEntity
  8
detail
 62
    16
  6
CONTINUOUS
370
     5
100
AcDbLine
 10
1.83193866
 20
-5.57679981
 30
0.0
 11
1.83194787
 21
-5.57627837
 31
0.0
  0
LINE
  5
38B
100
AcDbEntity
  8
detail
 62
    16
  6
CONTINUOUS
370
     5
100
AcDbLine
 10
1.83205402
 20
-5.5730698
 30
0.0
 11
1.83219168
 21
-5.57311341
 31
0.0
  0
LINE
  5
38C
100
AcDbEntity
  8
detail
 62
    16
  6
CONTINUOUS
370
     5
100
AcDbLine
 10
1.83204587
 20
-5.57309551
 30
0.0
 11
1.83218354
 21
-5.57313911
 31
0.0
  0
LINE
  5
38D
100
AcDbEntity
  8
detail
 62
    16
  6
CONTINUOUS
370
     5
100
AcDbLine
 10
1.83214465
 20
-5.57684483
 30
0.0
 11
1.83208627
 21
-5.57681379
 31
0.0
  0
LINE
  5
38E
100
AcDbEntity
  8
detail
 62
    16
  6
CONTINUOUS
370
     5
100
AcDbLine
 10
1.8321605
 20
-5.57682107
 30
0.0
 11
1.83210213
 21
-5.57679003
 31
0.0
  0
LINE
  5
38F
100
AcDbEntity
  8
detail
 62
    16
  6
CONTINUOUS
370
     5
100
AcDbLine
 10
1.83243202
 20
-5.57629105
 30
0.0
 11
1.8324274
 21
-5.57664471
 31
0.0
  0
LINE
  5
390
100
AcDbEntity
  8
detail
 62
    16
  6
CONTINUOUS
370
     5
100
AcDbLine
 10
1.83221563
 20
-5.57679114
 30
0.0
 11
1.83221063
 21
-5.57680497
 31
0.0
  0
LINE
  5
391
100
AcDbEntity
  8
detail
 62
    16
  6
CONTINUOUS
370
     5
100
AcDbLine
 10
1.83217637
 20
-5.57679731
 30
0.0
 11
1.83211022
 21
-5.57676432
 31
0.0
  0
LINE
  5
392
100
AcDbEntity
  8
detail
 62
    16
  6
CONTINUOUS
370
     5
100
AcDbLine
 10
1.83240506
 20
-5.5762907
 30
0.0
 11
1.83239892
 21
-5.57664697
 31
0.0
  0
LINE
  5
393
100
AcDbEntity
  8
detail
 62
    16
  6
CONTINUOUS
370
     5
100
AcDbLine
 10
1.83239892
 20
-5.57664697
 30
0.0
 11
1.8323925
 21
-5.57629062
 31
0.0
  0
LINE
  5
394
100
AcDbEntity
  8
detail
 62
    16
  6
CONTINUOUS
370
     5
100
AcDbLine
 10
1.83237044
 20
-5.57664923
 30
0.0
 11
1.83236554
 21
-5.57629099
 31
0.0
  0
LINE
  5
395
100
AcDbEntity
  8
detail
 62
    16
  6
CONTINUOUS
370
     5
100
AcDbLine
 10
1.83212601
 20
-5.5767443
 30
0.0
 11
1.83221563
 21
-5.57679114
 31
0.0
  0
LINE
  5
396
100
AcDbEntity
  8
detail
 62
    16
  6
CONTINUOUS
370
     5
100
AcDbLine
 10
1.83178991
 20
-5.57837885
 30
0.0
 11
1.8317709
 21
-5.57833124
 31
0.0
  0
LINE
  5
397
100
AcDbEntity
  8
detail
 62
    16
  6
CONTINUOUS
370
     5
100
AcDbLine
 10
1.83179566
 20
-5.57843158
 30
0.0
 11
1.8318192
 21
-5.57837951
 31
0.0
  0
LINE
  5
398
100
AcDbEntity
  8
detail
 62
    16
  6
CONTINUOUS
370
     5
100
AcDbLine
 10
1.8318192
 20
-5.57837951
 30
0.0
 11
1.83179802
 21
-5.57832644
 31
0.0
  0
LINE
  5
399
100
AcDbEntity
  8
detail
 62
    16
  6
CONTINUOUS
370
     5
100
AcDbLine
 10
1.83183687
 20
-5.57952772
 30
0.0
 11
1.83186358
 21
-5.57957149
 31
0.0
  0
LINE
  5
39A
100
AcDbEntity
  8
detail
 62
    16
  6
CONTINUOUS
370
     5
100
AcDbLine
 10
1.83186358
 20
-5.57957149
 30
0.0
 11
1.83185057
 21
-5.57962108
 31
0.0
  0
LINE
  5
39B
100
AcDbEntity
  8
detail
 62
    16
  6
CONTINUOUS
370
     5
100
AcDbLine
 10
1.83189256
 20
-5.57956723
 30
0.0
 11
1.83187807
 21
-5.57962251
 31
0.0
  0
LINE
  5
39C
100
AcDbEntity
  8
detail
 62
    16
  6
CONTINUOUS
370
     5
100
AcDbLine
 10
1.8318628
 20
-5.57951845
 30
0.0
 11
1.83189256
 21
-5.57956723
 31
0.0
  0
LINE
  5
39D
100
AcDbEntity
  8
detail
 62
    16
  6
CONTINUOUS
370
     5
100
AcDbLine
 10
1.83191166
 20
-5.57720365
 30
0.0
 11
1.83198567
 21
-5.57715263
 31
0.0
  0
LINE
  5
39E
100
AcDbEntity
  8
detail
 62
    16
  6
CONTINUOUS
370
     5
100
AcDbLine
 10
1.83200024
 20
-5.5771244
 30
0.0
 11
1.83199359
 21
-5.57666656
 31
0.0
  0
LINE
  5
39F
100
AcDbEntity
  8
detail
 62
    16
  6
CONTINUOUS
370
     5
100
AcDbLine
 10
1.83229081
 20
-5.57671504
 30
0.0
 11
1.83229014
 21
-5.57666247
 31
0.0
  0
LINE
  5
3A0
100
AcDbEntity
  8
detail
 62
    16
  6
CONTINUOUS
370
     5
100
AcDbLine
 10
1.83235625
 20
-5.57670829
 30
0.0
 11
1.83234178
 21
-5.57663406
 31
0.0
  0
LINE
  5
3A1
100
AcDbEntity
  8
detail
 62
    16
  6
CONTINUOUS
370
     5
100
AcDbLine
 10
1.83232979
 20
-5.57671344
 30
0.0
 11
1.83231428
 21
-5.5766352
 31
0.0
  0
LINE
  5
3A2
100
AcDbEntity
  8
detail
 62
    16
  6
CONTINUOUS
370
     5
100
AcDbLine
 10
1.83231777
 20
-5.57671483
 30
0.0
 11
1.83231513
 21
-5.57663999
 31
0.0
  0
LINE
  5
3A3
100
AcDbEntity
  8
detail
 62
    16
  6
CONTINUOUS
370
     5
100
AcDbLine
 10
1.83208096
 20
-5.57704528
 30
0.0
 11
1.83204798
 21
-5.57667478
 31
0.0
  0
LINE
  5
3A4
100
AcDbEntity
  8
detail
 62
    16
  6
CONTINUOUS
370
     5
100
AcDbLine
 10
1.83205411
 20
-5.57704767
 30
0.0
 11
1.83202063
 21
-5.57667168
 31
0.0
  0
LINE
  5
3A5
100
AcDbEntity
  8
detail
 62
    16
  6
CONTINUOUS
370
     5
100
AcDbLine
 10
1.8320272
 20
-5.57712401
 30
0.0
 11
1.83202055
 21
-5.57666617
 31
0.0
  0
LINE
  5
3A6
100
AcDbEntity
  8
detail
 62
    16
  6
CONTINUOUS
370
     5
100
AcDbLine
 10
1.83192697
 20
-5.57722584
 30
0.0
 11
1.83200097
 21
-5.57717483
 31
0.0
  0
LINE
  5
3A7
100
AcDbEntity
  8
detail
 62
    16
  6
CONTINUOUS
370
     5
100
AcDbLine
 10
1.83220715
 20
-5.58080505
 30
0.0
 11
1.83218987
 21
-5.58028382
 31
0.0
  0
LINE
  5
3A8
100
AcDbEntity
  8
detail
 62
    16
  6
CONTINUOUS
370
     5
100
AcDbLine
 10
1.8321802
 20
-5.58080594
 30
0.0
 11
1.83216293
 21
-5.58028472
 31
0.0
  0
LINE
  5
3A9
100
AcDbEntity
  8
detail
 62
    16
  6
CONTINUOUS
370
     5
100
AcDbLine
 10
1.832106
 20
-5.5770749
 30
0.0
 11
1.8322457
 21
-5.57711145
 31
0.0
  0
LINE
  5
3AA
100
AcDbEntity
  8
detail
 62
    16
  6
CONTINUOUS
370
     5
100
AcDbLine
 10
1.83209917
 20
-5.57710098
 30
0.0
 11
1.83223887
 21
-5.57713753
 31
0.0
  0
LINE
  5
3AB
100
AcDbEntity
  8
detail
 62
    16
  6
CONTINUOUS
370
     5
100
AcDbLine
 10
1.83238821
 20
-5.58084045
 30
0.0
 11
1.83232834
 21
-5.58081241
 31
0.0
  0
LINE
  5
3AC
100
AcDbEntity
  8
detail
 62
    16
  6
CONTINUOUS
370
     5
100
AcDbLine
 10
1.83240285
 20
-5.58081592
 30
0.0
 11
1.83234297
 21
-5.58078788
 31
0.0
  0
LINE
  5
3AD
100
AcDbEntity
  8
detail
 62
    16
  6
CONTINUOUS
370
     5
100
AcDbLine
 10
1.8326471
 20
-5.58027279
 30
0.0
 11
1.83266044
 21
-5.58062623
 31
0.0
  0
LINE
  5
3AE
100
AcDbEntity
  8
detail
 62
    16
  6
CONTINUOUS
370
     5
100
AcDbLine
 10
1.83245638
 20
-5.58078323
 30
0.0
 11
1.83245209
 21
-5.58079729
 31
0.0
  0
LINE
  5
3AF
100
AcDbEntity
  8
detail
 62
    16
  6
CONTINUOUS
370
     5
100
AcDbLine
 10
1.83241748
 20
-5.58079138
 30
0.0
 11
1.83234975
 21
-5.58076179
 31
0.0
  0
LINE
  5
3B0
100
AcDbEntity
  8
detail
 62
    16
  6
CONTINUOUS
370
     5
100
AcDbLine
 10
1.83262015
 20
-5.58027381
 30
0.0
 11
1.83263212
 21
-5.58062993
 31
0.0
  0
LINE
  5
3B1
100
AcDbEntity
  8
detail
 62
    16
  6
CONTINUOUS
370
     5
100
AcDbLine
 10
1.83263212
 20
-5.58062993
 30
0.0
 11
1.83260761
 21
-5.58027437
 31
0.0
  0
LINE
  5
3B2
100
AcDbEntity
  8
detail
 62
    16
  6
CONTINUOUS
370
     5
100
AcDbLine
 10
1.83260379
 20
-5.58063363
 30
0.0
 11
1.8325807
 21
-5.58027611
 31
0.0
  0
LINE
  5
3B3
100
AcDbEntity
  8
detail
 62
    16
  6
CONTINUOUS
370
     5
100
AcDbLine
 10
1.8323645
 20
-5.58074099
 30
0.0
 11
1.83245638
 21
-5.58078323
 31
0.0
  0
LINE
  5
3B4
100
AcDbEntity
  8
detail
 62
    16
  6
CONTINUOUS
370
     5
100
AcDbLine
 10
1.83224037
 20
-5.58908133
 30
0.0
 11
1.83225698
 21
-5.58862375
 31
0.0
  0
LINE
  5
3B5
100
AcDbEntity
  8
detail
 62
    16
  6
CONTINUOUS
370
     5
100
AcDbLine
 10
1.83255135
 20
-5.58868726
 30
0.0
 11
1.83255335
 21
-5.58863473
 31
0.0
  0
LINE
  5
3B6
100
AcDbEntity
  8
detail
 62
    16
  6
CONTINUOUS
370
     5
100
AcDbLine
 10
1.83261705
 20
-5.58868385
 30
0.0
 11
1.83260636
 21
-5.58860898
 31
0.0
  0
LINE
  5
3B7
100
AcDbEntity
  8
detail
 62
    16
  6
CONTINUOUS
370
     5
100
AcDbLine
 10
1.83259036
 20
-5.58868764
 30
0.0
 11
1.83257885
 21
-5.58860871
 31
0.0
  0
LINE
  5
3B8
100
AcDbEntity
  8
detail
 62
    16
  6
CONTINUOUS
370
     5
100
AcDbLine
 10
1.83257829
 20
-5.58868842
 30
0.0
 11
1.83257945
 21
-5.58861355
 31
0.0
  0
LINE
  5
3B9
100
AcDbEntity
  8
detail
 62
    16
  6
CONTINUOUS
370
     5
100
AcDbLine
 10
1.832325
 20
-5.58900642
 30
0.0
 11
1.83231087
 21
-5.58863472
 31
0.0
  0
LINE
  5
3BA
100
AcDbEntity
  8
detail
 62
    16
  6
CONTINUOUS
370
     5
100
AcDbLine
 10
1.83229806
 20
-5.58900744
 30
0.0
 11
1.83228372
 21
-5.58863024
 31
0.0
  0
LINE
  5
3BB
100
AcDbEntity
  8
detail
 62
    16
  6
CONTINUOUS
370
     5
100
AcDbLine
 10
1.83226731
 20
-5.58908231
 30
0.0
 11
1.83228392
 21
-5.58862473
 31
0.0
  0
LINE
  5
3BC
100
AcDbEntity
  8
detail
 62
    16
  6
CONTINUOUS
370
     5
100
AcDbLine
 10
1.83192933
 20
-5.5863676
 30
0.0
 11
1.8319528
 21
-5.58632202
 31
0.0
  0
LINE
  5
3BD
100
AcDbEntity
  8
detail
 62
    16
  6
CONTINUOUS
370
     5
100
AcDbLine
 10
1.8319528
 20
-5.58632202
 30
0.0
 11
1.83193624
 21
-5.58627349
 31
0.0
  0
LINE
  5
3BE
100
AcDbEntity
  8
detail
 62
    16
  6
CONTINUOUS
370
     5
100
AcDbLine
 10
1.83195587
 20
-5.58637497
 30
0.0
 11
1.83198202
 21
-5.58632416
 31
0.0
  0
LINE
  5
3BF
100
AcDbEntity
  8
detail
 62
    16
  6
CONTINUOUS
370
     5
100
AcDbLine
 10
1.83198202
 20
-5.58632416
 30
0.0
 11
1.83196356
 21
-5.58627008
 31
0.0
  0
LINE
  5
3C0
100
AcDbEntity
  8
detail
 62
    16
  6
CONTINUOUS
370
     5
100
AcDbLine
 10
1.83194136
 20
-5.58747178
 30
0.0
 11
1.83196581
 21
-5.58751685
 31
0.0
  0
LINE
  5
3C1
100
AcDbEntity
  8
detail
 62
    16
  6
CONTINUOUS
370
     5
100
AcDbLine
 10
1.83196581
 20
-5.58751685
 30
0.0
 11
1.8319503
 21
-5.58756572
 31
0.0
  0
LINE
  5
3C2
100
AcDbEntity
  8
detail
 62
    16
  6
CONTINUOUS
370
     5
100
AcDbLine
 10
1.83199497
 20
-5.58751407
 30
0.0
 11
1.83197769
 21
-5.58756854
 31
0.0
  0
LINE
  5
3C3
100
AcDbEntity
  8
detail
 62
    16
  6
CONTINUOUS
370
     5
100
AcDbLine
 10
1.83196773
 20
-5.58746384
 30
0.0
 11
1.83199497
 21
-5.58751407
 31
0.0
  0
LINE
  5
3C4
100
AcDbEntity
  8
detail
 62
    16
  6
CONTINUOUS
370
     5
100
AcDbLine
 10
1.83213408
 20
-5.58515451
 30
0.0
 11
1.83221057
 21
-5.58510732
 31
0.0
  0
LINE
  5
3C5
100
AcDbEntity
  8
detail
 62
    16
  6
CONTINUOUS
370
     5
100
AcDbLine
 10
1.83222656
 20
-5.58507986
 30
0.0
 11
1.83224317
 21
-5.58462228
 31
0.0
  0
LINE
  5
3C6
100
AcDbEntity
  8
detail
 62
    16
  6
CONTINUOUS
370
     5
100
AcDbLine
 10
1.83253754
 20
-5.58468578
 30
0.0
 11
1.83253954
 21
-5.58463325
 31
0.0
  0
LINE
  5
3C7
100
AcDbEntity
  8
detail
 62
    16
  6
CONTINUOUS
370
     5
100
AcDbLine
 10
1.83260324
 20
-5.58468237
 30
0.0
 11
1.83259256
 21
-5.5846075
 31
0.0
  0
LINE
  5
3C8
100
AcDbEntity
  8
detail
 62
    16
  6
CONTINUOUS
370
     5
100
AcDbLine
 10
1.83257655
 20
-5.58468616
 30
0.0
 11
1.83256504
 21
-5.58460723
 31
0.0
  0
LINE
  5
3C9
100
AcDbEntity
  8
detail
 62
    16
  6
CONTINUOUS
370
     5
100
AcDbLine
 10
1.83256448
 20
-5.58468694
 30
0.0
 11
1.83256564
 21
-5.58461207
 31
0.0
  0
LINE
  5
3CA
100
AcDbEntity
  8
detail
 62
    16
  6
CONTINUOUS
370
     5
100
AcDbLine
 10
1.8323112
 20
-5.58500494
 30
0.0
 11
1.83229707
 21
-5.58463324
 31
0.0
  0
LINE
  5
3CB
100
AcDbEntity
  8
detail
 62
    16
  6
CONTINUOUS
370
     5
100
AcDbLine
 10
1.83228425
 20
-5.58500597
 30
0.0
 11
1.83226992
 21
-5.58462876
 31
0.0
  0
LINE
  5
3CC
100
AcDbEntity
  8
detail
 62
    16
  6
CONTINUOUS
370
     5
100
AcDbLine
 10
1.8322535
 20
-5.58508083
 30
0.0
 11
1.83227012
 21
-5.58462325
 31
0.0
  0
LINE
  5
3CD
100
AcDbEntity
  8
detail
 62
    16
  6
CONTINUOUS
370
     5
100
AcDbLine
 10
1.83214823
 20
-5.58517745
 30
0.0
 11
1.83222473
 21
-5.58513026
 31
0.0
  0
LINE
  5
3CE
100
AcDbEntity
  8
detail
 62
    16
  6
CONTINUOUS
370
     5
100
AcDbLine
 10
1.83224629
 20
-5.58876627
 30
0.0
 11
1.83225551
 21
-5.58824484
 31
0.0
  0
LINE
  5
3CF
100
AcDbEntity
  8
detail
 62
    16
  6
CONTINUOUS
370
     5
100
AcDbLine
 10
1.83221934
 20
-5.58876579
 30
0.0
 11
1.83222855
 21
-5.58824436
 31
0.0
  0
LINE
  5
3D0
100
AcDbEntity
  8
detail
 62
    16
  6
CONTINUOUS
370
     5
100
AcDbLine
 10
1.8323347
 20
-5.58503579
 30
0.0
 11
1.83247236
 21
-5.58507939
 31
0.0
  0
LINE
  5
3D1
100
AcDbEntity
  8
detail
 62
    16
  6
CONTINUOUS
370
     5
100
AcDbLine
 10
1.83232656
 20
-5.58506149
 30
0.0
 11
1.83246422
 21
-5.5851051
 31
0.0
  0
LINE
  5
3D2
100
AcDbEntity
  8
detail
 62
    16
  6
CONTINUOUS
370
     5
100
AcDbLine
 10
1.83242533
 20
-5.58881082
 30
0.0
 11
1.83236695
 21
-5.58877978
 31
0.0
  0
LINE
  5
3D3
100
AcDbEntity
  8
detail
 62
    16
  6
CONTINUOUS
370
     5
100
AcDbLine
 10
1.83244118
 20
-5.58878706
 30
0.0
 11
1.83238281
 21
-5.58875602
 31
0.0
  0
LINE
  5
3D4
100
AcDbEntity
  8
detail
 62
    16
  6
CONTINUOUS
370
     5
100
AcDbLine
 10
1.8327127
 20
-5.58825704
 30
0.0
 11
1.83270808
 21
-5.5886107
 31
0.0
  0
LINE
  5
3D5
100
AcDbEntity
  8
detail
 62
    16
  6
CONTINUOUS
370
     5
100
AcDbLine
 10
1.83249631
 20
-5.58875713
 30
0.0
 11
1.83249131
 21
-5.58877096
 31
0.0
  0
LINE
  5
3D6
100
AcDbEntity
  8
detail
 62
    16
  6
CONTINUOUS
370
     5
100
AcDbLine
 10
1.83245705
 20
-5.5887633
 30
0.0
 11
1.8323909
 21
-5.5887303
 31
0.0
  0
LINE
  5
3D7
100
AcDbEntity
  8
detail
 62
    16
  6
CONTINUOUS
370
     5
100
AcDbLine
 10
1.83268574
 20
-5.58825669
 30
0.0
 11
1.83267961
 21
-5.58861295
 31
0.0
  0
LINE
  5
3D8
100
AcDbEntity
  8
detail
 62
    16
  6
CONTINUOUS
370
     5
100
AcDbLine
 10
1.83267961
 20
-5.58861295
 30
0.0
 11
1.83267318
 21
-5.58825661
 31
0.0
  0
LINE
  5
3D9
100
AcDbEntity
  8
detail
 62
    16
  6
CONTINUOUS
370
     5
100
AcDbLine
 10
1.83265113
 20
-5.58861521
 30
0.0
 11
1.83264622
 21
-5.58825698
 31
0.0
  0
LINE
  5
3DA
100
AcDbEntity
  8
detail
 62
    16
  6
CONTINUOUS
370
     5
100
AcDbLine
 10
1.83240669
 20
-5.58871028
 30
0.0
 11
1.83249631
 21
-5.58875713
 31
0.0
  0
LINE
  5
3DB
100
AcDbEntity
  8
detail
 62
    16
  6
CONTINUOUS
370
     5
100
AcDbLine
 10
1.83672741
 20
-5.57188993
 30
0.0
 11
1.83845604
 21
-5.5701613
 31
0.0
  0
LINE
  5
3DC
100
AcDbEntity
  8
detail
 62
    16
  6
CONTINUOUS
370
     5
100
AcDbLine
 10
1.83845604
 20
-5.5701613
 30
0.0
 11
1.84090071
 21
-5.5701613
 31
0.0
  0
LINE
  5
3DD
100
AcDbEntity
  8
detail
 62
    16
  6
CONTINUOUS
370
     5
100
AcDbLine
 10
1.84090071
 20
-5.5701613
 30
0.0
 11
1.84262934
 21
-5.57188993
 31
0.0
  0
LINE
  5
3DE
100
AcDbEntity
  8
detail
 62
    16
  6
CONTINUOUS
370
     5
100
AcDbLine
 10
1.84262934
 20
-5.57188993
 30
0.0
 11
1.84262934
 21
-5.5743346
 31
0.0
  0
LINE
  5
3DF
100
AcDbEntity
  8
detail
 62
    16
  6
CONTINUOUS
370
     5
100
AcDbLine
 10
1.84262934
 20
-5.5743346
 30
0.0
 11
1.84090071
 21
-5.57606323
 31
0.0
  0
LINE
  5
3E0
100
AcDbEntity
  8
detail
 62
    16
  6
CONTINUOUS
370
     5
100
AcDbLine
 10
1.84090071
 20
-5.57606323
 30
0.0
 11
1.83845604
 21
-5.57606323
 31
0.0
  0
LINE
  5
3E1
100
AcDbEntity
  8
detail
 62
    16
  6
CONTINUOUS
370
     5
100
AcDbLine
 10
1.83845604
 20
-5.57606323
 30
0.0
 11
1.83672741
 21
-5.5743346
 31
0.0
  0
LINE
  5
3E2
100
AcDbEntity
  8
detail
 62
    16
  6
CONTINUOUS
370
     5
100
AcDbLine
 10
1.83686628
 20
-5.57427707
 30
0.0
 11
1.83686628
 21
-5.57194746
 31
0.0
  0
LINE
  5
3E3
100
AcDbEntity
  8
detail
 62
    16
  6
CONTINUOUS
370
     5
100
AcDbLine
 10
1.83686628
 20
-5.57194746
 30
0.0
 11
1.83851357
 21
-5.57030018
 31
0.0
  0
LINE
  5
3E4
100
AcDbEntity
  8
detail
 62
    16
  6
CONTINUOUS
370
     5
100
AcDbLine
 10
1.83851357
 20
-5.57030018
 30
0.0
 11
1.84084318
 21
-5.57030018
 31
0.0
  0
LINE
  5
3E5
100
AcDbEntity
  8
detail
 62
    16
  6
CONTINUOUS
370
     5
100
AcDbLine
 10
1.84084318
 20
-5.57030018
 30
0.0
 11
1.84249046
 21
-5.57194746
 31
0.0
  0
LINE
  5
3E6
100
AcDbEntity
  8
detail
 62
    16
  6
CONTINUOUS
370
     5
100
AcDbLine
 10
1.84249046
 20
-5.57194746
 30
0.0
 11
1.84249046
 21
-5.57427707
 31
0.0
  0
LINE
  5
3E7
100
AcDbEntity
  8
detail
 62
    16
  6
CONTINUOUS
370
     5
100
AcDbLine
 10
1.84249046
 20
-5.57427707
 30
0.0
 11
1.84084318
 21
-5.57592436
 31
0.0
  0
LINE
  5
3E8
100
AcDbEntity
  8
detail
 62
    16
  6
CONTINUOUS
370
     5
100
AcDbLine
 10
1.84084318
 20
-5.57592436
 30
0.0
 11
1.83851357
 21
-5.57592436
 31
0.0
  0
LINE
  5
3E9
100
AcDbEntity
  8
detail
 62
    16
  6
CONTINUOUS
370
     5
100
AcDbLine
 10
1.83851357
 20
-5.57592436
 30
0.0
 11
1.83686628
 21
-5.57427707
 31
0.0
  0
LINE
  5
3EA
100
AcDbEntity
  8
detail
 62
    16
  6
CONTINUOUS
370
     5
100
AcDbLine
 10
1.84609192
 20
-5.57788919
 30
0.0
 11
1.8447804
 21
-5.57788919
 31
0.0
  0
LINE
  5
3EB
100
AcDbEntity
  8
detail
 62
    16
  6
CONTINUOUS
370
     5
100
AcDbLine
 10
1.8355264
 20
-5.58489618
 30
0.0
 11
1.8355264
 21
-5.67445734
 31
0.0
  0
LINE
  5
3EC
100
AcDbEntity
  8
detail
 62
    16
  6
CONTINUOUS
370
     5
100
AcDbLine
 10
1.8358264
 20
-5.58489618
 30
0.0
 11
1.8358264
 21
-5.67445734
 31
0.0
  0
LINE
  5
3ED
100
AcDbEntity
  8
detail
 62
    16
  6
CONTINUOUS
370
     5
100
AcDbLine
 10
1.8337264
 20
-5.58489618
 30
0.0
 11
1.8337264
 21
-5.67445734
 31
0.0
  0
LINE
  5
3EE
100
AcDbEntity
  8
detail
 62
    16
  6
CONTINUOUS
370
     5
100
AcDbLine
 10
1.8333099
 20
-5.58017094
 30
0.0
 11
1.83310775
 21
-5.58088654
 31
0.0
  0
LINE
  5
3EF
100
AcDbEntity
  8
detail
 62
    16
  6
CONTINUOUS
370
     5
100
AcDbLine
 10
1.83225791
 20
-5.58313295
 30
0.0
 11
1.83303186
 21
-5.58313295
 31
0.0
  0
LINE
  5
3F0
100
AcDbEntity
  8
detail
 62
    16
  6
CONTINUOUS
370
     5
100
AcDbLine
 10
1.83918848
 20
-5.57262237
 30
0.0
 11
1.83918848
 21
-5.57360216
 31
0.0
  0
LINE
  5
3F1
100
AcDbEntity
  8
detail
 62
    16
  6
CONTINUOUS
370
     5
100
AcDbLine
 10
1.83918848
 20
-5.57262237
 30
0.0
 11
1.84016827
 21
-5.57262237
 31
0.0
  0
LINE
  5
3F2
100
AcDbEntity
  8
detail
 62
    16
  6
CONTINUOUS
370
     5
100
AcDbLine
 10
1.84016827
 20
-5.57262237
 30
0.0
 11
1.84016827
 21
-5.57360216
 31
0.0
  0
LINE
  5
3F3
100
AcDbEntity
  8
detail
 62
    16
  6
CONTINUOUS
370
     5
100
AcDbLine
 10
1.83918848
 20
-5.57360216
 30
0.0
 11
1.84016827
 21
-5.57360216
 31
0.0
  0
LINE
  5
3F4
100
AcDbEntity
  8
detail
 62
    16
  6
CONTINUOUS
370
     5
100
AcDbLine
 10
1.8313264
 20
-5.58258734
 30
0.0
 11
1.83139435
 21
-5.58309158
 31
0.0
  0
ARC
  5
3F5
100
AcDbEntity
  8
detail
 62
    16
  6
CONTINUOUS
370
     5
100
AcDbCircle
 10
1.83967837
 20
-5.57311227
 30
0.0
 40
0.0046
100
AcDbArc
 50
11.491649
 51
81.823224
  0
ARC
  5
3F6
100
AcDbEntity
  8
detail
 62
    16
  6
CONTINUOUS
370
     5
100
AcDbCircle
 10
1.83967837
 20
-5.57311227
 30
0.0
 40
0.0039
100
AcDbArc
 50
89.461019
 51
3.853854
  0
ARC
  5
3F7
100
AcDbEntity
  8
detail
 62
    16
  6
CONTINUOUS
370
     5
100
AcDbCircle
 10
1.83903275
 20
-5.58284551
 30
0.0
 40
0.00711054
100
AcDbArc
 50
185.86280002
 51
195.70969702
  0
ARC
  5
3F8
100
AcDbEntity
  8
detail
 62
    16
  6
CONTINUOUS
370
     5
100
AcDbCircle
 10
1.83903275
 20
-5.58284551
 30
0.0
 40
0.0071375
100
AcDbArc
 50
176.187196
 51
185.06030502
  0
ARC
  5
3F9
100
AcDbEntity
  8
detail
 62
    16
  6
CONTINUOUS
370
     5
100
AcDbCircle
 10
1.83903275
 20
-5.58284551
 30
0.0
 40
0.0071375
100
AcDbArc
 50
185.81781302
 51
195.70969702
  0
ARC
  5
3FA
100
AcDbEntity
  8
detail
 62
    16
  6
CONTINUOUS
370
     5
100
AcDbCircle
 10
1.83242986
 20
-5.58113778
 30
0.0
 40
6.0662799994094E-05
100
AcDbArc
 50
329.61035302
 51
66.28708501
  0
ARC
  5
3FB
100
AcDbEntity
  8
detail
 62
    16
  6
CONTINUOUS
370
     5
100
AcDbCircle
 10
1.83243274
 20
-5.5811391
 30
0.0
 40
3.3701499998239E-05
100
AcDbArc
 50
1.20309698
 51
66.787993
  0
ARC
  5
3FC
100
AcDbEntity
  8
detail
 62
    16
  6
CONTINUOUS
370
     5
100
AcDbCircle
 10
1.83903275
 20
-5.58284551
 30
0.0
 40
0.0071375
100
AcDbArc
 50
166.632902
 51
175.429689
  0
ARC
  5
3FD
100
AcDbEntity
  8
detail
 62
    16
  6
CONTINUOUS
370
     5
100
AcDbCircle
 10
1.83903275
 20
-5.58284551
 30
0.0
 40
0.00711054
100
AcDbArc
 50
166.632902
 51
175.384715
  0
ARC
  5
3FE
100
AcDbEntity
  8
detail
 62
    16
  6
CONTINUOUS
370
     5
100
AcDbCircle
 10
1.83903275
 20
-5.58284551
 30
0.0
 40
0.00711054
100
AcDbArc
 50
176.232189
 51
185.01532502
  0
ARC
  5
3FF
100
AcDbEntity
  8
detail
 62
    16
  6
CONTINUOUS
370
     5
100
AcDbCircle
 10
1.8353679
 20
-5.58249296
 30
0.0
 40
0.00320208
100
AcDbArc
 50
154.974186
 51
211.95055102
  0
ARC
  5
400
100
AcDbEntity
  8
detail
 62
    16
  6
CONTINUOUS
370
     5
100
AcDbCircle
 10
1.8353679
 20
-5.58249296
 30
0.0
 40
0.00317516
100
AcDbArc
 50
155.345613
 51
211.97619202
  0
ARC
  5
401
100
AcDbEntity
  8
detail
 62
    16
  6
CONTINUOUS
370
     5
100
AcDbCircle
 10
1.8321943
 20
-5.58476895
 30
0.0
 40
3.3701500000459E-05
100
AcDbArc
 50
195.70969701
 51
358.98758501
  0
ARC
  5
402
100
AcDbEntity
  8
detail
 62
    16
  6
CONTINUOUS
370
     5
100
AcDbCircle
 10
1.83243265
 20
-5.58425157
 30
0.0
 40
0.00022243
100
AcDbArc
 50
357.45217302
 51
178.98758
  0
ARC
  5
403
100
AcDbEntity
  8
detail
 62
    16
  6
CONTINUOUS
370
     5
100
AcDbCircle
 10
1.8321943
 20
-5.58476895
 30
0.0
 40
6.7403000017073E-06
100
AcDbArc
 50
195.70969708
 51
358.98758502
  0
ARC
  5
404
100
AcDbEntity
  8
detail
 62
    16
  6
CONTINUOUS
370
     5
100
AcDbCircle
 10
1.83243265
 20
-5.58425157
 30
0.0
 40
0.00019547
100
AcDbArc
 50
357.45217302
 51
178.98758
  0
ARC
  5
405
100
AcDbEntity
  8
detail
 62
    16
  6
CONTINUOUS
370
     5
100
AcDbCircle
 10
1.83253293
 20
-5.58425267
 30
0.0
 40
0.00013481
100
AcDbArc
 50
355.91910903
 51
28.92946498
  0
ARC
  5
406
100
AcDbEntity
  8
detail
 62
    16
  6
CONTINUOUS
370
     5
100
AcDbCircle
 10
1.83253293
 20
-5.58425267
 30
0.0
 40
0.00016177
100
AcDbArc
 50
355.91910901
 51
28.92946501
  0
ARC
  5
407
100
AcDbEntity
  8
detail
 62
    16
  6
CONTINUOUS
370
     5
100
AcDbCircle
 10
1.83240001
 20
-5.58063192
 30
0.0
 40
0.00017525
100
AcDbArc
 50
6.91623
 51
177.920678
  0
ARC
  5
408
100
AcDbEntity
  8
detail
 62
    16
  6
CONTINUOUS
370
     5
100
AcDbCircle
 10
1.83240001
 20
-5.58063192
 30
0.0
 40
0.00014829
100
AcDbArc
 50
8.297827
 51
177.920678
  0
ARC
  5
409
100
AcDbEntity
  8
detail
 62
    16
  6
CONTINUOUS
370
     5
100
AcDbCircle
 10
1.83240001
 20
-5.58063192
 30
0.0
 40
0.00012133
100
AcDbArc
 50
357.82107102
 51
182.17665402
  0
ARC
  5
40A
100
AcDbEntity
  8
detail
 62
    16
  6
CONTINUOUS
370
     5
100
AcDbCircle
 10
1.83255225
 20
-5.58069032
 30
0.0
 40
3.3027500000632E-05
100
AcDbArc
 50
177.82105899
 51
8.12421699
  0
ARC
  5
40B
100
AcDbEntity
  8
detail
 62
    16
  6
CONTINUOUS
370
     5
100
AcDbCircle
 10
1.83255225
 20
-5.58069032
 30
0.0
 40
6.0663000033298E-06
100
AcDbArc
 50
179.11150104
 51
8.29782692
  0
ARC
  5
40C
100
AcDbEntity
  8
detail
 62
    16
  6
CONTINUOUS
370
     5
100
AcDbCircle
 10
1.83232658
 20
-5.58100694
 30
0.0
 40
6.0662800048917E-05
100
AcDbArc
 50
182.17665405
 51
252.42508098
  0
ARC
  5
40D
100
AcDbEntity
  8
detail
 62
    16
  6
CONTINUOUS
370
     5
100
AcDbCircle
 10
1.83232658
 20
-5.58100694
 30
0.0
 40
3.3701500015242E-05
100
AcDbArc
 50
182.17665403
 51
252.425081
  0
ARC
  5
40E
100
AcDbEntity
  8
detail
 62
    16
  6
CONTINUOUS
370
     5
100
AcDbCircle
 10
1.83217458
 20
-5.58108191
 30
0.0
 40
3.3701499923080E-05
100
AcDbArc
 50
301.66865796
 51
357.92068908
  0
ARC
  5
40F
100
AcDbEntity
  8
detail
 62
    16
  6
CONTINUOUS
370
     5
100
AcDbCircle
 10
1.83214763
 20
-5.58120942
 30
0.0
 40
3.3701500075105E-05
100
AcDbArc
 50
121.66864705
 51
166.63290197
  0
ARC
  5
410
100
AcDbEntity
  8
detail
 62
    16
  6
CONTINUOUS
370
     5
100
AcDbCircle
 10
1.83217458
 20
-5.58108191
 30
0.0
 40
6.0662800023850E-05
100
AcDbArc
 50
301.66865802
 51
357.92068901
  0
ARC
  5
411
100
AcDbEntity
  8
detail
 62
    16
  6
CONTINUOUS
370
     5
100
AcDbCircle
 10
1.83214763
 20
-5.58120942
 30
0.0
 40
6.0662799949864E-05
100
AcDbArc
 50
121.66864699
 51
166.63290203
  0
ARC
  5
412
100
AcDbEntity
  8
detail
 62
    16
  6
CONTINUOUS
370
     5
100
AcDbCircle
 10
1.83236608
 20
-5.58474729
 30
0.0
 40
4.0441799999098E-05
100
AcDbArc
 50
56.51308499
 51
252.52613503
  0
ARC
  5
413
100
AcDbEntity
  8
detail
 62
    16
  6
CONTINUOUS
370
     5
100
AcDbCircle
 10
1.83236856
 20
-5.58474644
 30
0.0
 40
1.3480599997754E-05
100
AcDbArc
 50
72.52611996
 51
252.52613506
  0
ARC
  5
414
100
AcDbEntity
  8
detail
 62
    16
  6
CONTINUOUS
370
     5
100
AcDbCircle
 10
1.83248806
 20
-5.58462998
 30
0.0
 40
0.00014523
100
AcDbArc
 50
250.15309602
 51
4.535121
  0
ARC
  5
415
100
AcDbEntity
  8
detail
 62
    16
  6
CONTINUOUS
370
     5
100
AcDbCircle
 10
1.83248806
 20
-5.58462998
 30
0.0
 40
0.0001738
100
AcDbArc
 50
247.88434501
 51
4.535121
  0
ARC
  5
416
100
AcDbEntity
  8
detail
 62
    16
  6
CONTINUOUS
370
     5
100
AcDbCircle
 10
1.83248806
 20
-5.58462998
 30
0.0
 40
0.00020236
100
AcDbArc
 50
246.24700102
 51
4.535121
  0
ARC
  5
417
100
AcDbEntity
  8
detail
 62
    16
  6
CONTINUOUS
370
     5
100
AcDbCircle
 10
1.83338944
 20
-5.56818469
 30
0.0
 40
0.00022806
100
AcDbArc
 50
214.34961002
 51
49.645282
  0
ARC
  5
418
100
AcDbEntity
  8
detail
 62
    16
  6
CONTINUOUS
370
     5
100
AcDbCircle
 10
1.83338944
 20
-5.56818469
 30
0.0
 40
0.00031804
100
AcDbArc
 50
217.29213002
 51
27.829797
  0
ARC
  5
419
100
AcDbEntity
  8
detail
 62
    16
  6
CONTINUOUS
370
     5
100
AcDbCircle
 10
1.83493376
 20
-5.58140235
 30
0.0
 40
0.00189746
100
AcDbArc
 50
164.226014
 51
180.0
  0
ARC
  5
41A
100
AcDbEntity
  8
detail
 62
    16
  6
CONTINUOUS
370
     5
100
AcDbCircle
 10
1.83892561
 20
-5.57175154
 30
0.0
 40
0.00711054
100
AcDbArc
 50
178.51218
 51
188.35908802
  0
ARC
  5
41B
100
AcDbEntity
  8
detail
 62
    16
  6
CONTINUOUS
370
     5
100
AcDbCircle
 10
1.83892561
 20
-5.57175154
 30
0.0
 40
0.0071375
100
AcDbArc
 50
168.836587
 51
177.709685
  0
ARC
  5
41C
100
AcDbEntity
  8
detail
 62
    16
  6
CONTINUOUS
370
     5
100
AcDbCircle
 10
1.83892561
 20
-5.57175154
 30
0.0
 40
0.0071375
100
AcDbArc
 50
178.467193
 51
188.35908802
  0
ARC
  5
41D
100
AcDbEntity
  8
detail
 62
    16
  6
CONTINUOUS
370
     5
100
AcDbCircle
 10
1.83259548
 20
-5.56921306
 30
0.0
 40
6.0662800011137E-05
100
AcDbArc
 50
322.25974303
 51
58.93647598
  0
ARC
  5
41E
100
AcDbEntity
  8
detail
 62
    16
  6
CONTINUOUS
370
     5
100
AcDbCircle
 10
1.83259817
 20
-5.56921475
 30
0.0
 40
3.3701499975155E-05
100
AcDbArc
 50
353.852498
 51
59.43738302
  0
ARC
  5
41F
100
AcDbEntity
  8
detail
 62
    16
  6
CONTINUOUS
370
     5
100
AcDbCircle
 10
1.83892561
 20
-5.57175154
 30
0.0
 40
0.0071375
100
AcDbArc
 50
159.282293
 51
168.079079
  0
ARC
  5
420
100
AcDbEntity
  8
detail
 62
    16
  6
CONTINUOUS
370
     5
100
AcDbCircle
 10
1.83892561
 20
-5.57175154
 30
0.0
 40
0.00711054
100
AcDbArc
 50
159.282293
 51
168.034105
  0
ARC
  5
421
100
AcDbEntity
  8
detail
 62
    16
  6
CONTINUOUS
370
     5
100
AcDbCircle
 10
1.83892561
 20
-5.57175154
 30
0.0
 40
0.00711054
100
AcDbArc
 50
168.881579
 51
177.664705
  0
ARC
  5
422
100
AcDbEntity
  8
detail
 62
    16
  6
CONTINUOUS
370
     5
100
AcDbCircle
 10
1.83533599
 20
-5.57093301
 30
0.0
 40
0.00320208
100
AcDbArc
 50
147.623577
 51
204.59994102
  0
ARC
  5
423
100
AcDbEntity
  8
detail
 62
    16
  6
CONTINUOUS
370
     5
100
AcDbCircle
 10
1.83533599
 20
-5.57093301
 30
0.0
 40
0.00317516
100
AcDbArc
 50
147.995003
 51
204.62558202
  0
ARC
  5
424
100
AcDbEntity
  8
detail
 62
    16
  6
CONTINUOUS
370
     5
100
AcDbCircle
 10
1.83189728
 20
-5.57278426
 30
0.0
 40
3.3701500000971E-05
100
AcDbArc
 50
188.35908803
 51
351.63697603
  0
ARC
  5
425
100
AcDbEntity
  8
detail
 62
    16
  6
CONTINUOUS
370
     5
100
AcDbCircle
 10
1.83219986
 20
-5.57230163
 30
0.0
 40
0.00022243
100
AcDbArc
 50
350.10156402
 51
171.636971
  0
ARC
  5
426
100
AcDbEntity
  8
detail
 62
    16
  6
CONTINUOUS
370
     5
100
AcDbCircle
 10
1.83189728
 20
-5.57278426
 30
0.0
 40
6.7403000012073E-06
100
AcDbArc
 50
188.35908796
 51
351.63697612
  0
ARC
  5
427
100
AcDbEntity
  8
detail
 62
    16
  6
CONTINUOUS
370
     5
100
AcDbCircle
 10
1.83219986
 20
-5.57230163
 30
0.0
 40
0.00019547
100
AcDbArc
 50
350.10156402
 51
171.636971
  0
ARC
  5
428
100
AcDbEntity
  8
detail
 62
    16
  6
CONTINUOUS
370
     5
100
AcDbCircle
 10
1.83229918
 20
-5.57231555
 30
0.0
 40
0.00013481
100
AcDbArc
 50
348.56850001
 51
21.578856
  0
ARC
  5
429
100
AcDbEntity
  8
detail
 62
    16
  6
CONTINUOUS
370
     5
100
AcDbCircle
 10
1.83229918
 20
-5.57231555
 30
0.0
 40
0.00016177
100
AcDbArc
 50
348.56850002
 51
21.578856
  0
ARC
  5
42A
100
AcDbEntity
  8
detail
 62
    16
  6
CONTINUOUS
370
     5
100
AcDbCircle
 10
1.83263059
 20
-5.56870754
 30
0.0
 40
0.00017525
100
AcDbArc
 50
359.56563102
 51
170.570069
  0
ARC
  5
42B
100
AcDbEntity
  8
detail
 62
    16
  6
CONTINUOUS
370
     5
100
AcDbCircle
 10
1.83263059
 20
-5.56870754
 30
0.0
 40
0.00014829
100
AcDbArc
 50
0.947218
 51
170.570069
  0
ARC
  5
42C
100
AcDbEntity
  8
detail
 62
    16
  6
CONTINUOUS
370
     5
100
AcDbCircle
 10
1.83263059
 20
-5.56870754
 30
0.0
 40
0.00012133
100
AcDbArc
 50
350.47046202
 51
174.826035
  0
ARC
  5
42D
100
AcDbEntity
  8
detail
 62
    16
  6
CONTINUOUS
370
     5
100
AcDbCircle
 10
1.83277411
 20
-5.56878494
 30
0.0
 40
3.3027500002341E-05
100
AcDbArc
 50
170.47045
 51
0.77360799
  0
ARC
  5
42E
100
AcDbEntity
  8
detail
 62
    16
  6
CONTINUOUS
370
     5
100
AcDbCircle
 10
1.83277411
 20
-5.56878494
 30
0.0
 40
6.0662999993650E-06
100
AcDbArc
 50
171.76089194
 51
0.94721801
  0
ARC
  5
42F
100
AcDbEntity
  8
detail
 62
    16
  6
CONTINUOUS
370
     5
100
AcDbCircle
 10
1.83250978
 20
-5.56907009
 30
0.0
 40
6.0662800030757E-05
100
AcDbArc
 50
174.82603502
 51
245.074472
  0
ARC
  5
430
100
AcDbEntity
  8
detail
 62
    16
  6
CONTINUOUS
370
     5
100
AcDbCircle
 10
1.83250978
 20
-5.56907009
 30
0.0
 40
3.3701499975486E-05
100
AcDbArc
 50
174.82603497
 51
245.07447203
  0
ARC
  5
431
100
AcDbEntity
  8
detail
 62
    16
  6
CONTINUOUS
370
     5
100
AcDbCircle
 10
1.83234945
 20
-5.569125
 30
0.0
 40
3.3701500051017E-05
100
AcDbArc
 50
294.31804906
 51
350.57007998
  0
ARC
  5
432
100
AcDbEntity
  8
detail
 62
    16
  6
CONTINUOUS
370
     5
100
AcDbCircle
 10
1.8323064
 20
-5.56924801
 30
0.0
 40
3.3701499949648E-05
100
AcDbArc
 50
114.31803797
 51
159.28229306
  0
ARC
  5
433
100
AcDbEntity
  8
detail
 62
    16
  6
CONTINUOUS
370
     5
100
AcDbCircle
 10
1.83234945
 20
-5.569125
 30
0.0
 40
6.0662799947172E-05
100
AcDbArc
 50
294.31804898
 51
350.57008003
  0
ARC
  5
434
100
AcDbEntity
  8
detail
 62
    16
  6
CONTINUOUS
370
     5
100
AcDbCircle
 10
1.8323064
 20
-5.56924801
 30
0.0
 40
6.0662799982782E-05
100
AcDbArc
 50
114.318038
 51
159.28229299
  0
ARC
  5
435
100
AcDbEntity
  8
detail
 62
    16
  6
CONTINUOUS
370
     5
100
AcDbCircle
 10
1.83207042
 20
-5.57278476
 30
0.0
 40
4.0441800003752E-05
100
AcDbArc
 50
49.162476
 51
245.17552501
  0
ARC
  5
436
100
AcDbEntity
  8
detail
 62
    16
  6
CONTINUOUS
370
     5
100
AcDbCircle
 10
1.83207299
 20
-5.57278423
 30
0.0
 40
1.3480600005115E-05
100
AcDbArc
 50
65.17551005
 51
245.17552499
  0
ARC
  5
437
100
AcDbEntity
  8
detail
 62
    16
  6
CONTINUOUS
370
     5
100
AcDbCircle
 10
1.8322064
 20
-5.57268401
 30
0.0
 40
0.00014523
100
AcDbArc
 50
242.80248702
 51
357.18452102
  0
ARC
  5
438
100
AcDbEntity
  8
detail
 62
    16
  6
CONTINUOUS
370
     5
100
AcDbCircle
 10
1.8322064
 20
-5.57268401
 30
0.0
 40
0.0001738
100
AcDbArc
 50
240.53373602
 51
357.18452102
  0
ARC
  5
439
100
AcDbEntity
  8
detail
 62
    16
  6
CONTINUOUS
370
     5
100
AcDbCircle
 10
1.8322064
 20
-5.57268401
 30
0.0
 40
0.00020236
100
AcDbArc
 50
238.89639102
 51
357.18452102
  0
ARC
  5
43A
100
AcDbEntity
  8
detail
 62
    16
  6
CONTINUOUS
370
     5
100
AcDbCircle
 10
1.83877036
 20
-5.57487624
 30
0.0
 40
0.00711054
100
AcDbArc
 50
185.86280002
 51
195.70969702
  0
ARC
  5
43B
100
AcDbEntity
  8
detail
 62
    16
  6
CONTINUOUS
370
     5
100
AcDbCircle
 10
1.83877036
 20
-5.57487624
 30
0.0
 40
0.0071375
100
AcDbArc
 50
176.187196
 51
185.06030502
  0
ARC
  5
43C
100
AcDbEntity
  8
detail
 62
    16
  6
CONTINUOUS
370
     5
100
AcDbCircle
 10
1.83877036
 20
-5.57487624
 30
0.0
 40
0.0071375
100
AcDbArc
 50
185.81781302
 51
195.70969702
  0
ARC
  5
43D
100
AcDbEntity
  8
detail
 62
    16
  6
CONTINUOUS
370
     5
100
AcDbCircle
 10
1.83216748
 20
-5.57316851
 30
0.0
 40
6.0662799992893E-05
100
AcDbArc
 50
329.61035302
 51
66.28708501
  0
ARC
  5
43E
100
AcDbEntity
  8
detail
 62
    16
  6
CONTINUOUS
370
     5
100
AcDbCircle
 10
1.83217036
 20
-5.57316984
 30
0.0
 40
3.3701500012913E-05
100
AcDbArc
 50
1.20309702
 51
66.78799298
  0
ARC
  5
43F
100
AcDbEntity
  8
detail
 62
    16
  6
CONTINUOUS
370
     5
100
AcDbCircle
 10
1.83877036
 20
-5.57487624
 30
0.0
 40
0.0071375
100
AcDbArc
 50
166.632902
 51
175.429689
  0
ARC
  5
440
100
AcDbEntity
  8
detail
 62
    16
  6
CONTINUOUS
370
     5
100
AcDbCircle
 10
1.83877036
 20
-5.57487624
 30
0.0
 40
0.00711054
100
AcDbArc
 50
166.632902
 51
175.384715
  0
ARC
  5
441
100
AcDbEntity
  8
detail
 62
    16
  6
CONTINUOUS
370
     5
100
AcDbCircle
 10
1.83877036
 20
-5.57487624
 30
0.0
 40
0.00711054
100
AcDbArc
 50
176.232189
 51
185.01532502
  0
ARC
  5
442
100
AcDbEntity
  8
detail
 62
    16
  6
CONTINUOUS
370
     5
100
AcDbCircle
 10
1.83510551
 20
-5.57452369
 30
0.0
 40
0.00320208
100
AcDbArc
 50
154.974186
 51
211.95055102
  0
ARC
  5
443
100
AcDbEntity
  8
detail
 62
    16
  6
CONTINUOUS
370
     5
100
AcDbCircle
 10
1.83510551
 20
-5.57452369
 30
0.0
 40
0.00317516
100
AcDbArc
 50
155.345613
 51
211.97619202
  0
ARC
  5
444
100
AcDbEntity
  8
detail
 62
    16
  6
CONTINUOUS
370
     5
100
AcDbCircle
 10
1.83193192
 20
-5.57679969
 30
0.0
 40
3.3701500001159E-05
100
AcDbArc
 50
195.70969701
 51
358.98758501
  0
ARC
  5
445
100
AcDbEntity
  8
detail
 62
    16
  6
CONTINUOUS
370
     5
100
AcDbCircle
 10
1.83217027
 20
-5.5762823
 30
0.0
 40
0.00022243
100
AcDbArc
 50
357.45217302
 51
178.98758
  0
ARC
  5
446
100
AcDbEntity
  8
detail
 62
    16
  6
CONTINUOUS
370
     5
100
AcDbCircle
 10
1.83193192
 20
-5.57679969
 30
0.0
 40
6.7403000015541E-06
100
AcDbArc
 50
195.70969709
 51
358.98758489
  0
ARC
  5
447
100
AcDbEntity
  8
detail
 62
    16
  6
CONTINUOUS
370
     5
100
AcDbCircle
 10
1.83217027
 20
-5.5762823
 30
0.0
 40
0.00019547
100
AcDbArc
 50
357.45217302
 51
178.98758
  0
ARC
  5
448
100
AcDbEntity
  8
detail
 62
    16
  6
CONTINUOUS
370
     5
100
AcDbCircle
 10
1.83227055
 20
-5.5762834
 30
0.0
 40
0.00013481
100
AcDbArc
 50
355.91910903
 51
28.92946499
  0
ARC
  5
449
100
AcDbEntity
  8
detail
 62
    16
  6
CONTINUOUS
370
     5
100
AcDbCircle
 10
1.83227055
 20
-5.5762834
 30
0.0
 40
0.00016177
100
AcDbArc
 50
355.91910901
 51
28.929465
  0
ARC
  5
44A
100
AcDbEntity
  8
detail
 62
    16
  6
CONTINUOUS
370
     5
100
AcDbCircle
 10
1.83213762
 20
-5.57266265
 30
0.0
 40
0.00017525
100
AcDbArc
 50
6.91623
 51
177.920678
  0
ARC
  5
44B
100
AcDbEntity
  8
detail
 62
    16
  6
CONTINUOUS
370
     5
100
AcDbCircle
 10
1.83213762
 20
-5.57266265
 30
0.0
 40
0.00014829
100
AcDbArc
 50
8.297827
 51
177.92067799
  0
ARC
  5
44C
100
AcDbEntity
  8
detail
 62
    16
  6
CONTINUOUS
370
     5
100
AcDbCircle
 10
1.83213762
 20
-5.57266265
 30
0.0
 40
0.00012133
100
AcDbArc
 50
357.82107102
 51
182.17665401
  0
ARC
  5
44D
100
AcDbEntity
  8
detail
 62
    16
  6
CONTINUOUS
370
     5
100
AcDbCircle
 10
1.83228987
 20
-5.57272105
 30
0.0
 40
3.3027500001193E-05
100
AcDbArc
 50
177.821059
 51
8.12421701
  0
ARC
  5
44E
100
AcDbEntity
  8
detail
 62
    16
  6
CONTINUOUS
370
     5
100
AcDbCircle
 10
1.83228987
 20
-5.57272105
 30
0.0
 40
6.0663000033636E-06
100
AcDbArc
 50
179.11150102
 51
8.29782692
  0
ARC
  5
44F
100
AcDbEntity
  8
detail
 62
    16
  6
CONTINUOUS
370
     5
100
AcDbCircle
 10
1.83206419
 20
-5.57303767
 30
0.0
 40
6.0662800032065E-05
100
AcDbArc
 50
182.17665403
 51
252.425081
  0
ARC
  5
450
100
AcDbEntity
  8
detail
 62
    16
  6
CONTINUOUS
370
     5
100
AcDbCircle
 10
1.83206419
 20
-5.57303767
 30
0.0
 40
3.3701500026705E-05
100
AcDbArc
 50
182.17665404
 51
252.42508098
  0
ARC
  5
451
100
AcDbEntity
  8
detail
 62
    16
  6
CONTINUOUS
370
     5
100
AcDbCircle
 10
1.8319122
 20
-5.57311265
 30
0.0
 40
3.3701499942492E-05
100
AcDbArc
 50
301.66865797
 51
357.92068907
  0
ARC
  5
452
100
AcDbEntity
  8
detail
 62
    16
  6
CONTINUOUS
370
     5
100
AcDbCircle
 10
1.83188524
 20
-5.57324015
 30
0.0
 40
3.3701500045345E-05
100
AcDbArc
 50
121.66864703
 51
166.63290197
  0
ARC
  5
453
100
AcDbEntity
  8
detail
 62
    16
  6
CONTINUOUS
370
     5
100
AcDbCircle
 10
1.8319122
 20
-5.57311265
 30
0.0
 40
6.0662800027999E-05
100
AcDbArc
 50
301.66865803
 51
357.92068901
  0
ARC
  5
454
100
AcDbEntity
  8
detail
 62
    16
  6
CONTINUOUS
370
     5
100
AcDbCircle
 10
1.83188524
 20
-5.57324015
 30
0.0
 40
6.0662799965693E-05
100
AcDbArc
 50
121.66864699
 51
166.63290201
  0
ARC
  5
455
100
AcDbEntity
  8
detail
 62
    16
  6
CONTINUOUS
370
     5
100
AcDbCircle
 10
1.8321037
 20
-5.57677803
 30
0.0
 40
4.0441800004172E-05
100
AcDbArc
 50
56.513085
 51
252.52613503
  0
ARC
  5
456
100
AcDbEntity
  8
detail
 62
    16
  6
CONTINUOUS
370
     5
100
AcDbCircle
 10
1.83210618
 20
-5.57677718
 30
0.0
 40
1.3480600001777E-05
100
AcDbArc
 50
72.52611999
 51
252.52613505
  0
ARC
  5
457
100
AcDbEntity
  8
detail
 62
    16
  6
CONTINUOUS
370
     5
100
AcDbCircle
 10
1.83222567
 20
-5.57666071
 30
0.0
 40
0.00014523
100
AcDbArc
 50
250.15309602
 51
4.535121
  0
ARC
  5
458
100
AcDbEntity
  8
detail
 62
    16
  6
CONTINUOUS
370
     5
100
AcDbCircle
 10
1.83222567
 20
-5.57666071
 30
0.0
 40
0.0001738
100
AcDbArc
 50
247.88434502
 51
4.535121
  0
ARC
  5
459
100
AcDbEntity
  8
detail
 62
    16
  6
CONTINUOUS
370
     5
100
AcDbCircle
 10
1.83222567
 20
-5.57666071
 30
0.0
 40
0.00020236
100
AcDbArc
 50
246.24700102
 51
4.535121
  0
ARC
  5
45A
100
AcDbEntity
  8
detail
 62
    16
  6
CONTINUOUS
370
     5
100
AcDbCircle
 10
1.84471706
 20
-5.56930758
 30
0.0
 40
0.00026944
100
AcDbArc
 50
270.00001002
 51
90.0
  0
ARC
  5
45B
100
AcDbEntity
  8
detail
 62
    16
  6
CONTINUOUS
370
     5
100
AcDbCircle
 10
1.83506607
 20
-5.56930758
 30
0.0
 40
0.00026944
100
AcDbArc
 50
90.0
 51
270.00001002
  0
ARC
  5
45C
100
AcDbEntity
  8
detail
 62
    16
  6
CONTINUOUS
370
     5
100
AcDbCircle
 10
1.84471706
 20
-5.57584665
 30
0.0
 40
0.00026944
100
AcDbArc
 50
270.00001002
 51
90.0
  0
ARC
  5
45D
100
AcDbEntity
  8
detail
 62
    16
  6
CONTINUOUS
370
     5
100
AcDbCircle
 10
1.83506607
 20
-5.57584665
 30
0.0
 40
0.00026944
100
AcDbArc
 50
90.0
 51
270.00001002
  0
ARC
  5
45E
100
AcDbEntity
  8
detail
 62
    16
  6
CONTINUOUS
370
     5
100
AcDbCircle
 10
1.8316631
 20
-5.5649053
 30
0.0
 40
0.0003453
100
AcDbArc
 50
52.122858
 51
167.184791
  0
ARC
  5
45F
100
AcDbEntity
  8
detail
 62
    16
  6
CONTINUOUS
370
     5
100
AcDbCircle
 10
1.83177063
 20
-5.56515783
 30
0.0
 40
0.00016417
100
AcDbArc
 50
47.899533
 51
174.105762
  0
ARC
  5
460
100
AcDbEntity
  8
detail
 62
    16
  6
CONTINUOUS
370
     5
100
AcDbCircle
 10
1.84471706
 20
-5.5776273
 30
0.0
 40
0.00026944
100
AcDbArc
 50
270.00001002
 51
90.0
  0
ARC
  5
461
100
AcDbEntity
  8
detail
 62
    16
  6
CONTINUOUS
370
     5
100
AcDbCircle
 10
1.83506607
 20
-5.5776273
 30
0.0
 40
0.00026944
100
AcDbArc
 50
90.0
 51
270.00001002
  0
ARC
  5
462
100
AcDbEntity
  8
detail
 62
    16
  6
CONTINUOUS
370
     5
100
AcDbCircle
 10
1.83160733
 20
-5.56829684
 30
0.0
 40
0.00031277
100
AcDbArc
 50
270.00001002
 51
7.9972055523549E-10
  0
ARC
  5
463
100
AcDbEntity
  8
detail
 62
    16
  6
CONTINUOUS
370
     5
100
AcDbCircle
 10
1.84543215
 20
-5.57119607
 30
0.0
 40
0.00051201
100
AcDbArc
 50
270.00001002
 51
360.00001002
  0
ARC
  5
464
100
AcDbEntity
  8
detail
 62
    16
  6
CONTINUOUS
370
     5
100
AcDbCircle
 10
1.84543215
 20
-5.56709212
 30
0.0
 40
0.00051201
100
AcDbArc
 50
360.00001002
 51
90.0
  0
ARC
  5
465
100
AcDbEntity
  8
detail
 62
    16
  6
CONTINUOUS
370
     5
100
AcDbCircle
 10
1.84543215
 20
-5.57821756
 30
0.0
 40
0.00051201
100
AcDbArc
 50
270.00001002
 51
1.1398949907052E-09
  0
ARC
  5
466
100
AcDbEntity
  8
detail
 62
    16
  6
CONTINUOUS
370
     5
100
AcDbCircle
 10
1.83506607
 20
-5.57311227
 30
0.0
 40
0.00140418
100
AcDbArc
 50
90.0
 51
270.00001002
  0
ARC
  5
467
100
AcDbEntity
  8
detail
 62
    16
  6
CONTINUOUS
370
     5
100
AcDbCircle
 10
1.84543215
 20
-5.57502846
 30
0.0
 40
0.00051201
100
AcDbArc
 50
360.00001002
 51
90.0
  0
ARC
  5
468
100
AcDbEntity
  8
detail
 62
    16
  6
CONTINUOUS
370
     5
100
AcDbCircle
 10
1.83890541
 20
-5.57853793
 30
0.0
 40
0.00711054
100
AcDbArc
 50
188.77363702
 51
198.62053502
  0
ARC
  5
469
100
AcDbEntity
  8
detail
 62
    16
  6
CONTINUOUS
370
     5
100
AcDbCircle
 10
1.83890541
 20
-5.57853793
 30
0.0
 40
0.0071375
100
AcDbArc
 50
179.098034
 51
187.97114302
  0
ARC
  5
46A
100
AcDbEntity
  8
detail
 62
    16
  6
CONTINUOUS
370
     5
100
AcDbCircle
 10
1.83890541
 20
-5.57853793
 30
0.0
 40
0.0071375
100
AcDbArc
 50
188.72865102
 51
198.62053502
  0
ARC
  5
46B
100
AcDbEntity
  8
detail
 62
    16
  6
CONTINUOUS
370
     5
100
AcDbCircle
 10
1.83222432
 20
-5.57716771
 30
0.0
 40
6.0662800012975E-05
100
AcDbArc
 50
332.52119103
 51
69.19792299
  0
ARC
  5
46C
100
AcDbEntity
  8
detail
 62
    16
  6
CONTINUOUS
370
     5
100
AcDbCircle
 10
1.83222727
 20
-5.57716889
 30
0.0
 40
3.3701500023432E-05
100
AcDbArc
 50
4.113935
 51
69.69883096
  0
ARC
  5
46D
100
AcDbEntity
  8
detail
 62
    16
  6
CONTINUOUS
370
     5
100
AcDbCircle
 10
1.83890541
 20
-5.57853793
 30
0.0
 40
0.0071375
100
AcDbArc
 50
169.54374
 51
178.340526
  0
ARC
  5
46E
100
AcDbEntity
  8
detail
 62
    16
  6
CONTINUOUS
370
     5
100
AcDbCircle
 10
1.83890541
 20
-5.57853793
 30
0.0
 40
0.00711054
100
AcDbArc
 50
169.54374
 51
178.295553
  0
ARC
  5
46F
100
AcDbEntity
  8
detail
 62
    16
  6
CONTINUOUS
370
     5
100
AcDbCircle
 10
1.83890541
 20
-5.57853793
 30
0.0
 40
0.00711054
100
AcDbArc
 50
179.143027
 51
187.92616302
  0
ARC
  5
470
100
AcDbEntity
  8
detail
 62
    16
  6
CONTINUOUS
370
     5
100
AcDbCircle
 10
1.83522739
 20
-5.57837195
 30
0.0
 40
0.00320208
100
AcDbArc
 50
157.885024
 51
214.86138902
  0
ARC
  5
471
100
AcDbEntity
  8
detail
 62
    16
  6
CONTINUOUS
370
     5
100
AcDbCircle
 10
1.83522739
 20
-5.57837195
 30
0.0
 40
0.00317516
100
AcDbArc
 50
158.25645
 51
214.88703002
  0
ARC
  5
472
100
AcDbEntity
  8
detail
 62
    16
  6
CONTINUOUS
370
     5
100
AcDbCircle
 10
1.83217347
 20
-5.58080617
 30
0.0
 40
3.3701499999314E-05
100
AcDbArc
 50
198.62053503
 51
1.898413
  0
ARC
  5
473
100
AcDbEntity
  8
detail
 62
    16
  6
CONTINUOUS
370
     5
100
AcDbCircle
 10
1.83238524
 20
-5.58027735
 30
0.0
 40
0.00022243
100
AcDbArc
 50
0.363001
 51
181.89842802
  0
ARC
  5
474
100
AcDbEntity
  8
detail
 62
    16
  6
CONTINUOUS
370
     5
100
AcDbCircle
 10
1.83217347
 20
-5.58080617
 30
0.0
 40
6.7402999988707E-06
100
AcDbArc
 50
198.62053496
 51
1.89841309
  0
ARC
  5
475
100
AcDbEntity
  8
detail
 62
    16
  6
CONTINUOUS
370
     5
100
AcDbCircle
 10
1.83238524
 20
-5.58027735
 30
0.0
 40
0.00019547
100
AcDbArc
 50
0.363001
 51
181.89842802
  0
ARC
  5
476
100
AcDbEntity
  8
detail
 62
    16
  6
CONTINUOUS
370
     5
100
AcDbCircle
 10
1.83248544
 20
-5.58027335
 30
0.0
 40
0.00013481
100
AcDbArc
 50
358.829947
 51
31.84030302
  0
ARC
  5
477
100
AcDbEntity
  8
detail
 62
    16
  6
CONTINUOUS
370
     5
100
AcDbCircle
 10
1.83248544
 20
-5.58027335
 30
0.0
 40
0.00016177
100
AcDbArc
 50
358.82994702
 51
31.840303
  0
ARC
  5
478
100
AcDbEntity
  8
detail
 62
    16
  6
CONTINUOUS
370
     5
100
AcDbCircle
 10
1.83216882
 20
-5.57666402
 30
0.0
 40
0.00017525
100
AcDbArc
 50
9.827068
 51
180.83152602
  0
ARC
  5
479
100
AcDbEntity
  8
detail
 62
    16
  6
CONTINUOUS
370
     5
100
AcDbCircle
 10
1.83216882
 20
-5.57666402
 30
0.0
 40
0.00014829
100
AcDbArc
 50
11.208665
 51
180.83152602
  0
ARC
  5
47A
100
AcDbEntity
  8
detail
 62
    16
  6
CONTINUOUS
370
     5
100
AcDbCircle
 10
1.83216882
 20
-5.57666402
 30
0.0
 40
0.00012133
100
AcDbArc
 50
0.731899
 51
185.08749202
  0
ARC
  5
47B
100
AcDbEntity
  8
detail
 62
    16
  6
CONTINUOUS
370
     5
100
AcDbCircle
 10
1.83232384
 20
-5.57671461
 30
0.0
 40
3.3027500001800E-05
100
AcDbArc
 50
180.73190702
 51
11.035055
  0
ARC
  5
47C
100
AcDbEntity
  8
detail
 62
    16
  6
CONTINUOUS
370
     5
100
AcDbCircle
 10
1.83232384
 20
-5.57671461
 30
0.0
 40
6.0662999957294E-06
100
AcDbArc
 50
182.02234905
 51
11.2086651
  0
ARC
  5
47D
100
AcDbEntity
  8
detail
 62
    16
  6
CONTINUOUS
370
     5
100
AcDbCircle
 10
1.83211453
 20
-5.57704229
 30
0.0
 40
6.0662800010630E-05
100
AcDbArc
 50
185.08749202
 51
255.33591901
  0
ARC
  5
47E
100
AcDbEntity
  8
detail
 62
    16
  6
CONTINUOUS
370
     5
100
AcDbCircle
 10
1.83211453
 20
-5.57704229
 30
0.0
 40
3.3701500060193E-05
100
AcDbArc
 50
185.08749208
 51
255.33591894
  0
ARC
  5
47F
100
AcDbEntity
  8
detail
 62
    16
  6
CONTINUOUS
370
     5
100
AcDbCircle
 10
1.83196654
 20
-5.57712489
 30
0.0
 40
3.3701499986320E-05
100
AcDbArc
 50
304.57949601
 51
0.83151703
  0
ARC
  5
480
100
AcDbEntity
  8
detail
 62
    16
  6
CONTINUOUS
370
     5
100
AcDbCircle
 10
1.83194609
 20
-5.57725359
 30
0.0
 40
3.3701499969785E-05
100
AcDbArc
 50
124.57948498
 51
169.54374001
  0
ARC
  5
481
100
AcDbEntity
  8
detail
 62
    16
  6
CONTINUOUS
370
     5
100
AcDbCircle
 10
1.83196654
 20
-5.57712489
 30
0.0
 40
6.0662800037323E-05
100
AcDbArc
 50
304.57949604
 51
0.83151699
  0
ARC
  5
482
100
AcDbEntity
  8
detail
 62
    16
  6
CONTINUOUS
370
     5
100
AcDbCircle
 10
1.83194609
 20
-5.57725359
 30
0.0
 40
6.0662799955242E-05
100
AcDbArc
 50
124.57948498
 51
169.54374003
  0
ARC
  5
483
100
AcDbEntity
  8
detail
 62
    16
  6
CONTINUOUS
370
     5
100
AcDbCircle
 10
1.83234393
 20
-5.58077581
 30
0.0
 40
4.0441799999332E-05
100
AcDbArc
 50
59.42392299
 51
255.43697303
  0
ARC
  5
484
100
AcDbEntity
  8
detail
 62
    16
  6
CONTINUOUS
370
     5
100
AcDbCircle
 10
1.83234636
 20
-5.58077484
 30
0.0
 40
1.3480600004015E-05
100
AcDbArc
 50
75.43695803
 51
255.43697303
  0
ARC
  5
485
100
AcDbEntity
  8
detail
 62
    16
  6
CONTINUOUS
370
     5
100
AcDbCircle
 10
1.83245979
 20
-5.58065245
 30
0.0
 40
0.00014523
100
AcDbArc
 50
253.06393401
 51
7.44595901
  0
ARC
  5
486
100
AcDbEntity
  8
detail
 62
    16
  6
CONTINUOUS
370
     5
100
AcDbCircle
 10
1.83245979
 20
-5.58065245
 30
0.0
 40
0.0001738
100
AcDbArc
 50
250.79518301
 51
7.445959
  0
ARC
  5
487
100
AcDbEntity
  8
detail
 62
    16
  6
CONTINUOUS
370
     5
100
AcDbCircle
 10
1.83245979
 20
-5.58065245
 30
0.0
 40
0.00020236
100
AcDbArc
 50
249.15783902
 51
7.445959
  0
ARC
  5
488
100
AcDbEntity
  8
detail
 62
    16
  6
CONTINUOUS
370
     5
100
AcDbCircle
 10
1.83267403
 20
-5.56888691
 30
0.0
 40
8.3938999991926E-05
100
AcDbArc
 50
208.96883701
 51
313.96883703
  0
ARC
  5
489
100
AcDbEntity
  8
detail
 62
    16
  6
CONTINUOUS
370
     5
100
AcDbCircle
 10
1.83263625
 20
-5.56881867
 30
0.0
 40
8.3939000001206E-05
100
AcDbArc
 50
133.968829
 51
208.96885202
  0
ARC
  5
48A
100
AcDbEntity
  8
detail
 62
    16
  6
CONTINUOUS
370
     5
100
AcDbCircle
 10
1.83262343
 20
-5.56873774
 30
0.0
 40
1.6787800007794E-05
100
AcDbArc
 50
333.96879801
 51
133.96885097
  0
ARC
  5
48B
100
AcDbEntity
  8
detail
 62
    16
  6
CONTINUOUS
370
     5
100
AcDbCircle
 10
1.83263491
 20
-5.56881624
 30
0.0
 40
2.7979699983867E-05
100
AcDbArc
 50
153.96882897
 51
208.96883105
  0
ARC
  5
48C
100
AcDbEntity
  8
detail
 62
    16
  6
CONTINUOUS
370
     5
100
AcDbCircle
 10
1.83267524
 20
-5.56883132
 30
0.0
 40
5.5959299995724E-05
100
AcDbArc
 50
208.96884602
 51
313.96884102
  0
ARC
  5
48D
100
AcDbEntity
  8
detail
 62
    16
  6
CONTINUOUS
370
     5
100
AcDbCircle
 10
1.83267403
 20
-5.56888691
 30
0.0
 40
8.3938999991926E-05
100
AcDbArc
 50
208.96883701
 51
313.96883703
  0
ARC
  5
48E
100
AcDbEntity
  8
detail
 62
    16
  6
CONTINUOUS
370
     5
100
AcDbCircle
 10
1.83263625
 20
-5.56881867
 30
0.0
 40
8.3939000001206E-05
100
AcDbArc
 50
133.968829
 51
208.96885202
  0
ARC
  5
48F
100
AcDbEntity
  8
detail
 62
    16
  6
CONTINUOUS
370
     5
100
AcDbCircle
 10
1.83262343
 20
-5.56873774
 30
0.0
 40
1.6787800007794E-05
100
AcDbArc
 50
333.96879801
 51
133.96885097
  0
ARC
  5
490
100
AcDbEntity
  8
detail
 62
    16
  6
CONTINUOUS
370
     5
100
AcDbCircle
 10
1.83263491
 20
-5.56881624
 30
0.0
 40
2.7979699983867E-05
100
AcDbArc
 50
153.96882897
 51
208.96883105
  0
ARC
  5
491
100
AcDbEntity
  8
detail
 62
    16
  6
CONTINUOUS
370
     5
100
AcDbCircle
 10
1.83267524
 20
-5.56883132
 30
0.0
 40
5.5959299995724E-05
100
AcDbArc
 50
208.96884602
 51
313.96884102
  0
ARC
  5
492
100
AcDbEntity
  8
detail
 62
    16
  6
CONTINUOUS
370
     5
100
AcDbCircle
 10
1.83267403
 20
-5.56888691
 30
0.0
 40
8.3938999991926E-05
100
AcDbArc
 50
208.96883701
 51
313.96883703
  0
ARC
  5
493
100
AcDbEntity
  8
detail
 62
    16
  6
CONTINUOUS
370
     5
100
AcDbCircle
 10
1.83263625
 20
-5.56881867
 30
0.0
 40
8.3939000001206E-05
100
AcDbArc
 50
133.968829
 51
208.96885202
  0
ARC
  5
494
100
AcDbEntity
  8
detail
 62
    16
  6
CONTINUOUS
370
     5
100
AcDbCircle
 10
1.83262343
 20
-5.56873774
 30
0.0
 40
1.6787800007794E-05
100
AcDbArc
 50
333.96879801
 51
133.96885097
  0
ARC
  5
495
100
AcDbEntity
  8
detail
 62
    16
  6
CONTINUOUS
370
     5
100
AcDbCircle
 10
1.83263491
 20
-5.56881624
 30
0.0
 40
2.7979699983867E-05
100
AcDbArc
 50
153.96882897
 51
208.96883105
  0
ARC
  5
496
100
AcDbEntity
  8
detail
 62
    16
  6
CONTINUOUS
370
     5
100
AcDbCircle
 10
1.83267524
 20
-5.56883132
 30
0.0
 40
5.5959299995724E-05
100
AcDbArc
 50
208.96884602
 51
313.96884102
  0
ARC
  5
497
100
AcDbEntity
  8
detail
 62
    16
  6
CONTINUOUS
370
     5
100
AcDbCircle
 10
1.83267403
 20
-5.56888691
 30
0.0
 40
8.3938999991926E-05
100
AcDbArc
 50
208.96883701
 51
313.96883703
  0
ARC
  5
498
100
AcDbEntity
  8
detail
 62
    16
  6
CONTINUOUS
370
     5
100
AcDbCircle
 10
1.83263625
 20
-5.56881867
 30
0.0
 40
8.3939000001206E-05
100
AcDbArc
 50
133.968829
 51
208.96885202
  0
ARC
  5
499
100
AcDbEntity
  8
detail
 62
    16
  6
CONTINUOUS
370
     5
100
AcDbCircle
 10
1.83262343
 20
-5.56873774
 30
0.0
 40
1.6787800007794E-05
100
AcDbArc
 50
333.96879801
 51
133.96885097
  0
ARC
  5
49A
100
AcDbEntity
  8
detail
 62
    16
  6
CONTINUOUS
370
     5
100
AcDbCircle
 10
1.83263491
 20
-5.56881624
 30
0.0
 40
2.7979699983867E-05
100
AcDbArc
 50
153.96882897
 51
208.96883105
  0
ARC
  5
49B
100
AcDbEntity
  8
detail
 62
    16
  6
CONTINUOUS
370
     5
100
AcDbCircle
 10
1.83267524
 20
-5.56883132
 30
0.0
 40
5.5959299995724E-05
100
AcDbArc
 50
208.96884602
 51
313.96884102
  0
ARC
  5
49C
100
AcDbEntity
  8
detail
 62
    16
  6
CONTINUOUS
370
     5
100
AcDbCircle
 10
1.83267403
 20
-5.56888691
 30
0.0
 40
8.3938999991926E-05
100
AcDbArc
 50
208.96883701
 51
313.96883703
  0
ARC
  5
49D
100
AcDbEntity
  8
detail
 62
    16
  6
CONTINUOUS
370
     5
100
AcDbCircle
 10
1.83263625
 20
-5.56881867
 30
0.0
 40
8.3939000001206E-05
100
AcDbArc
 50
133.968829
 51
208.96885202
  0
ARC
  5
49E
100
AcDbEntity
  8
detail
 62
    16
  6
CONTINUOUS
370
     5
100
AcDbCircle
 10
1.83262343
 20
-5.56873774
 30
0.0
 40
1.6787800007794E-05
100
AcDbArc
 50
333.96879801
 51
133.96885097
  0
ARC
  5
49F
100
AcDbEntity
  8
detail
 62
    16
  6
CONTINUOUS
370
     5
100
AcDbCircle
 10
1.83263491
 20
-5.56881624
 30
0.0
 40
2.7979699983867E-05
100
AcDbArc
 50
153.96882897
 51
208.96883105
  0
ARC
  5
4A0
100
AcDbEntity
  8
detail
 62
    16
  6
CONTINUOUS
370
     5
100
AcDbCircle
 10
1.83267524
 20
-5.56883132
 30
0.0
 40
5.5959299995724E-05
100
AcDbArc
 50
208.96884602
 51
313.96884102
  0
ARC
  5
4A1
100
AcDbEntity
  8
detail
 62
    16
  6
CONTINUOUS
370
     5
100
AcDbCircle
 10
1.83267403
 20
-5.56888691
 30
0.0
 40
8.3938999991926E-05
100
AcDbArc
 50
208.96883701
 51
313.96883703
  0
ARC
  5
4A2
100
AcDbEntity
  8
detail
 62
    16
  6
CONTINUOUS
370
     5
100
AcDbCircle
 10
1.83263625
 20
-5.56881867
 30
0.0
 40
8.3939000001206E-05
100
AcDbArc
 50
133.968829
 51
208.96885202
  0
ARC
  5
4A3
100
AcDbEntity
  8
detail
 62
    16
  6
CONTINUOUS
370
     5
100
AcDbCircle
 10
1.83262343
 20
-5.56873774
 30
0.0
 40
1.6787800007794E-05
100
AcDbArc
 50
333.96879801
 51
133.96885097
  0
ARC
  5
4A4
100
AcDbEntity
  8
detail
 62
    16
  6
CONTINUOUS
370
     5
100
AcDbCircle
 10
1.83263491
 20
-5.56881624
 30
0.0
 40
2.7979699983867E-05
100
AcDbArc
 50
153.96882897
 51
208.96883105
  0
ARC
  5
4A5
100
AcDbEntity
  8
detail
 62
    16
  6
CONTINUOUS
370
     5
100
AcDbCircle
 10
1.83267524
 20
-5.56883132
 30
0.0
 40
5.5959299995724E-05
100
AcDbArc
 50
208.96884602
 51
313.96884102
  0
ARC
  5
4A6
100
AcDbEntity
  8
detail
 62
    16
  6
CONTINUOUS
370
     5
100
AcDbCircle
 10
1.83267403
 20
-5.56888691
 30
0.0
 40
8.3938999991926E-05
100
AcDbArc
 50
208.96883701
 51
313.96883703
  0
ARC
  5
4A7
100
AcDbEntity
  8
detail
 62
    16
  6
CONTINUOUS
370
     5
100
AcDbCircle
 10
1.83263625
 20
-5.56881867
 30
0.0
 40
8.3939000001206E-05
100
AcDbArc
 50
133.968829
 51
208.96885202
  0
ARC
  5
4A8
100
AcDbEntity
  8
detail
 62
    16
  6
CONTINUOUS
370
     5
100
AcDbCircle
 10
1.83262343
 20
-5.56873774
 30
0.0
 40
1.6787800007794E-05
100
AcDbArc
 50
333.96879801
 51
133.96885097
  0
ARC
  5
4A9
100
AcDbEntity
  8
detail
 62
    16
  6
CONTINUOUS
370
     5
100
AcDbCircle
 10
1.83263491
 20
-5.56881624
 30
0.0
 40
2.7979699983867E-05
100
AcDbArc
 50
153.96882897
 51
208.96883105
  0
ARC
  5
4AA
100
AcDbEntity
  8
detail
 62
    16
  6
CONTINUOUS
370
     5
100
AcDbCircle
 10
1.83267524
 20
-5.56883132
 30
0.0
 40
5.5959299995724E-05
100
AcDbArc
 50
208.96884602
 51
313.96884102
  0
ARC
  5
4AB
100
AcDbEntity
  8
detail
 62
    16
  6
CONTINUOUS
370
     5
100
AcDbCircle
 10
1.83267403
 20
-5.56888691
 30
0.0
 40
8.3938999991926E-05
100
AcDbArc
 50
208.96883701
 51
313.96883703
  0
ARC
  5
4AC
100
AcDbEntity
  8
detail
 62
    16
  6
CONTINUOUS
370
     5
100
AcDbCircle
 10
1.83263625
 20
-5.56881867
 30
0.0
 40
8.3939000001206E-05
100
AcDbArc
 50
133.968829
 51
208.96885202
  0
ARC
  5
4AD
100
AcDbEntity
  8
detail
 62
    16
  6
CONTINUOUS
370
     5
100
AcDbCircle
 10
1.83262343
 20
-5.56873774
 30
0.0
 40
1.6787800007794E-05
100
AcDbArc
 50
333.96879801
 51
133.96885097
  0
ARC
  5
4AE
100
AcDbEntity
  8
detail
 62
    16
  6
CONTINUOUS
370
     5
100
AcDbCircle
 10
1.83263491
 20
-5.56881624
 30
0.0
 40
2.7979699983867E-05
100
AcDbArc
 50
153.96882897
 51
208.96883105
  0
ARC
  5
4AF
100
AcDbEntity
  8
detail
 62
    16
  6
CONTINUOUS
370
     5
100
AcDbCircle
 10
1.83267524
 20
-5.56883132
 30
0.0
 40
5.5959299995724E-05
100
AcDbArc
 50
208.96884602
 51
313.96884102
  0
ARC
  5
4B0
100
AcDbEntity
  8
detail
 62
    16
  6
CONTINUOUS
370
     5
100
AcDbCircle
 10
1.83267403
 20
-5.56888691
 30
0.0
 40
8.3938999991926E-05
100
AcDbArc
 50
208.96883701
 51
313.96883703
  0
ARC
  5
4B1
100
AcDbEntity
  8
detail
 62
    16
  6
CONTINUOUS
370
     5
100
AcDbCircle
 10
1.83263625
 20
-5.56881867
 30
0.0
 40
8.3939000001206E-05
100
AcDbArc
 50
133.968829
 51
208.96885202
  0
ARC
  5
4B2
100
AcDbEntity
  8
detail
 62
    16
  6
CONTINUOUS
370
     5
100
AcDbCircle
 10
1.83262343
 20
-5.56873774
 30
0.0
 40
1.6787800007794E-05
100
AcDbArc
 50
333.96879801
 51
133.96885097
  0
ARC
  5
4B3
100
AcDbEntity
  8
detail
 62
    16
  6
CONTINUOUS
370
     5
100
AcDbCircle
 10
1.83263491
 20
-5.56881624
 30
0.0
 40
2.7979699983867E-05
100
AcDbArc
 50
153.96882897
 51
208.96883105
  0
ARC
  5
4B4
100
AcDbEntity
  8
detail
 62
    16
  6
CONTINUOUS
370
     5
100
AcDbCircle
 10
1.83267524
 20
-5.56883132
 30
0.0
 40
5.5959299995724E-05
100
AcDbArc
 50
208.96884602
 51
313.96884102
  0
ARC
  5
4B5
100
AcDbEntity
  8
detail
 62
    16
  6
CONTINUOUS
370
     5
100
AcDbCircle
 10
1.83267403
 20
-5.56888691
 30
0.0
 40
8.3938999991926E-05
100
AcDbArc
 50
208.96883701
 51
313.96883703
  0
ARC
  5
4B6
100
AcDbEntity
  8
detail
 62
    16
  6
CONTINUOUS
370
     5
100
AcDbCircle
 10
1.83263625
 20
-5.56881867
 30
0.0
 40
8.3939000001206E-05
100
AcDbArc
 50
133.968829
 51
208.96885202
  0
ARC
  5
4B7
100
AcDbEntity
  8
detail
 62
    16
  6
CONTINUOUS
370
     5
100
AcDbCircle
 10
1.83262343
 20
-5.56873774
 30
0.0
 40
1.6787800007794E-05
100
AcDbArc
 50
333.96879801
 51
133.96885097
  0
ARC
  5
4B8
100
AcDbEntity
  8
detail
 62
    16
  6
CONTINUOUS
370
     5
100
AcDbCircle
 10
1.83263491
 20
-5.56881624
 30
0.0
 40
2.7979699983867E-05
100
AcDbArc
 50
153.96882897
 51
208.96883105
  0
ARC
  5
4B9
100
AcDbEntity
  8
detail
 62
    16
  6
CONTINUOUS
370
     5
100
AcDbCircle
 10
1.83267524
 20
-5.56883132
 30
0.0
 40
5.5959299995724E-05
100
AcDbArc
 50
208.96884602
 51
313.96884102
  0
ARC
  5
4BA
100
AcDbEntity
  8
detail
 62
    16
  6
CONTINUOUS
370
     5
100
AcDbCircle
 10
1.83267403
 20
-5.56888691
 30
0.0
 40
8.3938999991926E-05
100
AcDbArc
 50
208.96883701
 51
313.96883703
  0
ARC
  5
4BB
100
AcDbEntity
  8
detail
 62
    16
  6
CONTINUOUS
370
     5
100
AcDbCircle
 10
1.83263625
 20
-5.56881867
 30
0.0
 40
8.3939000001206E-05
100
AcDbArc
 50
133.968829
 51
208.96885202
  0
ARC
  5
4BC
100
AcDbEntity
  8
detail
 62
    16
  6
CONTINUOUS
370
     5
100
AcDbCircle
 10
1.83262343
 20
-5.56873774
 30
0.0
 40
1.6787800007794E-05
100
AcDbArc
 50
333.96879801
 51
133.96885097
  0
ARC
  5
4BD
100
AcDbEntity
  8
detail
 62
    16
  6
CONTINUOUS
370
     5
100
AcDbCircle
 10
1.83263491
 20
-5.56881624
 30
0.0
 40
2.7979699983867E-05
100
AcDbArc
 50
153.96882897
 51
208.96883105
  0
ARC
  5
4BE
100
AcDbEntity
  8
detail
 62
    16
  6
CONTINUOUS
370
     5
100
AcDbCircle
 10
1.83267524
 20
-5.56883132
 30
0.0
 40
5.5959299995724E-05
100
AcDbArc
 50
208.96884602
 51
313.96884102
  0
ARC
  5
4BF
100
AcDbEntity
  8
detail
 62
    16
  6
CONTINUOUS
370
     5
100
AcDbCircle
 10
1.83267403
 20
-5.56888691
 30
0.0
 40
8.3938999991926E-05
100
AcDbArc
 50
208.96883701
 51
313.96883703
  0
ARC
  5
4C0
100
AcDbEntity
  8
detail
 62
    16
  6
CONTINUOUS
370
     5
100
AcDbCircle
 10
1.83263625
 20
-5.56881867
 30
0.0
 40
8.3939000001206E-05
100
AcDbArc
 50
133.968829
 51
208.96885202
  0
ARC
  5
4C1
100
AcDbEntity
  8
detail
 62
    16
  6
CONTINUOUS
370
     5
100
AcDbCircle
 10
1.83262343
 20
-5.56873774
 30
0.0
 40
1.6787800007794E-05
100
AcDbArc
 50
333.96879801
 51
133.96885097
  0
ARC
  5
4C2
100
AcDbEntity
  8
detail
 62
    16
  6
CONTINUOUS
370
     5
100
AcDbCircle
 10
1.83263491
 20
-5.56881624
 30
0.0
 40
2.7979699983867E-05
100
AcDbArc
 50
153.96882897
 51
208.96883105
  0
ARC
  5
4C3
100
AcDbEntity
  8
detail
 62
    16
  6
CONTINUOUS
370
     5
100
AcDbCircle
 10
1.83267524
 20
-5.56883132
 30
0.0
 40
5.5959299995724E-05
100
AcDbArc
 50
208.96884602
 51
313.96884102
  0
ARC
  5
4C4
100
AcDbEntity
  8
detail
 62
    16
  6
CONTINUOUS
370
     5
100
AcDbCircle
 10
1.83267403
 20
-5.56888691
 30
0.0
 40
8.3938999991926E-05
100
AcDbArc
 50
208.96883701
 51
313.96883703
  0
ARC
  5
4C5
100
AcDbEntity
  8
detail
 62
    16
  6
CONTINUOUS
370
     5
100
AcDbCircle
 10
1.83263625
 20
-5.56881867
 30
0.0
 40
8.3939000001206E-05
100
AcDbArc
 50
133.968829
 51
208.96885202
  0
ARC
  5
4C6
100
AcDbEntity
  8
detail
 62
    16
  6
CONTINUOUS
370
     5
100
AcDbCircle
 10
1.83262343
 20
-5.56873774
 30
0.0
 40
1.6787800007794E-05
100
AcDbArc
 50
333.96879801
 51
133.96885097
  0
ARC
  5
4C7
100
AcDbEntity
  8
detail
 62
    16
  6
CONTINUOUS
370
     5
100
AcDbCircle
 10
1.83263491
 20
-5.56881624
 30
0.0
 40
2.7979699983867E-05
100
AcDbArc
 50
153.96882897
 51
208.96883105
  0
ARC
  5
4C8
100
AcDbEntity
  8
detail
 62
    16
  6
CONTINUOUS
370
     5
100
AcDbCircle
 10
1.83267524
 20
-5.56883132
 30
0.0
 40
5.5959299995724E-05
100
AcDbArc
 50
208.96884602
 51
313.96884102
  0
ARC
  5
4C9
100
AcDbEntity
  8
detail
 62
    16
  6
CONTINUOUS
370
     5
100
AcDbCircle
 10
1.83267403
 20
-5.56888691
 30
0.0
 40
8.3938999991926E-05
100
AcDbArc
 50
208.96883701
 51
313.96883703
  0
ARC
  5
4CA
100
AcDbEntity
  8
detail
 62
    16
  6
CONTINUOUS
370
     5
100
AcDbCircle
 10
1.83263625
 20
-5.56881867
 30
0.0
 40
8.3939000001206E-05
100
AcDbArc
 50
133.968829
 51
208.96885202
  0
ARC
  5
4CB
100
AcDbEntity
  8
detail
 62
    16
  6
CONTINUOUS
370
     5
100
AcDbCircle
 10
1.83262343
 20
-5.56873774
 30
0.0
 40
1.6787800007794E-05
100
AcDbArc
 50
333.96879801
 51
133.96885097
  0
ARC
  5
4CC
100
AcDbEntity
  8
detail
 62
    16
  6
CONTINUOUS
370
     5
100
AcDbCircle
 10
1.83263491
 20
-5.56881624
 30
0.0
 40
2.7979699983867E-05
100
AcDbArc
 50
153.96882897
 51
208.96883105
  0
ARC
  5
4CD
100
AcDbEntity
  8
detail
 62
    16
  6
CONTINUOUS
370
     5
100
AcDbCircle
 10
1.83267524
 20
-5.56883132
 30
0.0
 40
5.5959299995724E-05
100
AcDbArc
 50
208.96884602
 51
313.96884102
  0
ARC
  5
4CE
100
AcDbEntity
  8
detail
 62
    16
  6
CONTINUOUS
370
     5
100
AcDbCircle
 10
1.83267403
 20
-5.56888691
 30
0.0
 40
8.3938999991926E-05
100
AcDbArc
 50
208.96883701
 51
313.96883703
  0
ARC
  5
4CF
100
AcDbEntity
  8
detail
 62
    16
  6
CONTINUOUS
370
     5
100
AcDbCircle
 10
1.83263625
 20
-5.56881867
 30
0.0
 40
8.3939000001206E-05
100
AcDbArc
 50
133.968829
 51
208.96885202
  0
ARC
  5
4D0
100
AcDbEntity
  8
detail
 62
    16
  6
CONTINUOUS
370
     5
100
AcDbCircle
 10
1.83262343
 20
-5.56873774
 30
0.0
 40
1.6787800007794E-05
100
AcDbArc
 50
333.96879801
 51
133.96885097
  0
ARC
  5
4D1
100
AcDbEntity
  8
detail
 62
    16
  6
CONTINUOUS
370
     5
100
AcDbCircle
 10
1.83263491
 20
-5.56881624
 30
0.0
 40
2.7979699983867E-05
100
AcDbArc
 50
153.96882897
 51
208.96883105
  0
ARC
  5
4D2
100
AcDbEntity
  8
detail
 62
    16
  6
CONTINUOUS
370
     5
100
AcDbCircle
 10
1.83267524
 20
-5.56883132
 30
0.0
 40
5.5959299995724E-05
100
AcDbArc
 50
208.96884602
 51
313.96884102
  0
ARC
  5
4D3
100
AcDbEntity
  8
detail
 62
    16
  6
CONTINUOUS
370
     5
100
AcDbCircle
 10
1.83267403
 20
-5.56888691
 30
0.0
 40
8.3938999991926E-05
100
AcDbArc
 50
208.96883701
 51
313.96883703
  0
ARC
  5
4D4
100
AcDbEntity
  8
detail
 62
    16
  6
CONTINUOUS
370
     5
100
AcDbCircle
 10
1.83263625
 20
-5.56881867
 30
0.0
 40
8.3939000001206E-05
100
AcDbArc
 50
133.968829
 51
208.96885202
  0
ARC
  5
4D5
100
AcDbEntity
  8
detail
 62
    16
  6
CONTINUOUS
370
     5
100
AcDbCircle
 10
1.83262343
 20
-5.56873774
 30
0.0
 40
1.6787800007794E-05
100
AcDbArc
 50
333.96879801
 51
133.96885097
  0
ARC
  5
4D6
100
AcDbEntity
  8
detail
 62
    16
  6
CONTINUOUS
370
     5
100
AcDbCircle
 10
1.83263491
 20
-5.56881624
 30
0.0
 40
2.7979699983867E-05
100
AcDbArc
 50
153.96882897
 51
208.96883105
  0
ARC
  5
4D7
100
AcDbEntity
  8
detail
 62
    16
  6
CONTINUOUS
370
     5
100
AcDbCircle
 10
1.83267524
 20
-5.56883132
 30
0.0
 40
5.5959299995724E-05
100
AcDbArc
 50
208.96884602
 51
313.96884102
  0
ARC
  5
4D8
100
AcDbEntity
  8
detail
 62
    16
  6
CONTINUOUS
370
     5
100
AcDbCircle
 10
1.83282623
 20
-5.56854053
 30
0.0
 40
0.00021824
100
AcDbArc
 50
313.96883998
 51
322.52223806
  0
ARC
  5
4D9
100
AcDbEntity
  8
detail
 62
    16
  6
CONTINUOUS
370
     5
100
AcDbCircle
 10
1.83334703
 20
-5.56823551
 30
0.0
 40
9.3310999929007E-06
100
AcDbArc
 50
310.91439299
 51
70.78877606
  0
ARC
  5
4DA
100
AcDbEntity
  8
detail
 62
    16
  6
CONTINUOUS
370
     5
100
AcDbCircle
 10
1.83278391
 20
-5.56855824
 30
0.0
 40
0.00018359
100
AcDbArc
 50
43.96882999
 51
133.96882901
  0
ARC
  5
4DB
100
AcDbEntity
  8
detail
 62
    16
  6
CONTINUOUS
370
     5
100
AcDbCircle
 10
1.83313708
 20
-5.5686239
 30
0.0
 40
0.00053148
100
AcDbArc
 50
55.689104
 51
118.564341
  0
ARC
  5
4DC
100
AcDbEntity
  8
detail
 62
    16
  6
CONTINUOUS
370
     5
100
AcDbCircle
 10
1.83314301
 20
-5.56854977
 30
0.0
 40
0.00038452
100
AcDbArc
 50
57.27584
 51
122.73106
  0
ARC
  5
4DD
100
AcDbEntity
  8
detail
 62
    16
  6
CONTINUOUS
370
     5
100
AcDbCircle
 10
1.83238091
 20
-5.56866327
 30
0.0
 40
2.7979699471300E-05
100
AcDbArc
 50
313.96882185
 51
329.12414716
  0
ARC
  5
4DE
100
AcDbEntity
  8
detail
 62
    16
  6
CONTINUOUS
370
     5
100
AcDbCircle
 10
1.83235051
 20
-5.56869259
 30
0.0
 40
2.7979699996955E-05
100
AcDbArc
 50
149.54368901
 51
313.96884301
  0
ARC
  5
4DF
100
AcDbEntity
  8
detail
 62
    16
  6
CONTINUOUS
370
     5
100
AcDbCircle
 10
1.83238091
 20
-5.56866327
 30
0.0
 40
2.7979699471300E-05
100
AcDbArc
 50
313.96882185
 51
329.12414716
  0
ARC
  5
4E0
100
AcDbEntity
  8
detail
 62
    16
  6
CONTINUOUS
370
     5
100
AcDbCircle
 10
1.83235051
 20
-5.56869259
 30
0.0
 40
2.7979699996955E-05
100
AcDbArc
 50
149.54368901
 51
313.96884301
  0
ARC
  5
4E1
100
AcDbEntity
  8
detail
 62
    16
  6
CONTINUOUS
370
     5
100
AcDbCircle
 10
1.83238091
 20
-5.56866327
 30
0.0
 40
2.7979699471300E-05
100
AcDbArc
 50
313.96882185
 51
329.12414716
  0
ARC
  5
4E2
100
AcDbEntity
  8
detail
 62
    16
  6
CONTINUOUS
370
     5
100
AcDbCircle
 10
1.83235051
 20
-5.56869259
 30
0.0
 40
2.7979699996955E-05
100
AcDbArc
 50
149.54368901
 51
313.96884301
  0
ARC
  5
4E3
100
AcDbEntity
  8
detail
 62
    16
  6
CONTINUOUS
370
     5
100
AcDbCircle
 10
1.83238091
 20
-5.56866327
 30
0.0
 40
2.7979699471300E-05
100
AcDbArc
 50
313.96882185
 51
329.12414716
  0
ARC
  5
4E4
100
AcDbEntity
  8
detail
 62
    16
  6
CONTINUOUS
370
     5
100
AcDbCircle
 10
1.83235051
 20
-5.56869259
 30
0.0
 40
2.7979699996955E-05
100
AcDbArc
 50
149.54368901
 51
313.96884301
  0
ARC
  5
4E5
100
AcDbEntity
  8
detail
 62
    16
  6
CONTINUOUS
370
     5
100
AcDbCircle
 10
1.83238091
 20
-5.56866327
 30
0.0
 40
2.7979699471300E-05
100
AcDbArc
 50
313.96882185
 51
329.12414716
  0
ARC
  5
4E6
100
AcDbEntity
  8
detail
 62
    16
  6
CONTINUOUS
370
     5
100
AcDbCircle
 10
1.83235051
 20
-5.56869259
 30
0.0
 40
2.7979699996955E-05
100
AcDbArc
 50
149.54368901
 51
313.96884301
  0
ARC
  5
4E7
100
AcDbEntity
  8
detail
 62
    16
  6
CONTINUOUS
370
     5
100
AcDbCircle
 10
1.83238091
 20
-5.56866327
 30
0.0
 40
2.7979699471300E-05
100
AcDbArc
 50
313.96882185
 51
329.12414716
  0
ARC
  5
4E8
100
AcDbEntity
  8
detail
 62
    16
  6
CONTINUOUS
370
     5
100
AcDbCircle
 10
1.83235051
 20
-5.56869259
 30
0.0
 40
2.7979699996955E-05
100
AcDbArc
 50
149.54368901
 51
313.96884301
  0
ARC
  5
4E9
100
AcDbEntity
  8
detail
 62
    16
  6
CONTINUOUS
370
     5
100
AcDbCircle
 10
1.83238091
 20
-5.56866327
 30
0.0
 40
2.7979699471300E-05
100
AcDbArc
 50
313.96882185
 51
329.12414716
  0
ARC
  5
4EA
100
AcDbEntity
  8
detail
 62
    16
  6
CONTINUOUS
370
     5
100
AcDbCircle
 10
1.83235051
 20
-5.56869259
 30
0.0
 40
2.7979699996955E-05
100
AcDbArc
 50
149.54368901
 51
313.96884301
  0
ARC
  5
4EB
100
AcDbEntity
  8
detail
 62
    16
  6
CONTINUOUS
370
     5
100
AcDbCircle
 10
1.83238091
 20
-5.56866327
 30
0.0
 40
2.7979699471300E-05
100
AcDbArc
 50
313.96882185
 51
329.12414716
  0
ARC
  5
4EC
100
AcDbEntity
  8
detail
 62
    16
  6
CONTINUOUS
370
     5
100
AcDbCircle
 10
1.83235051
 20
-5.56869259
 30
0.0
 40
2.7979699996955E-05
100
AcDbArc
 50
149.54368901
 51
313.96884301
  0
ARC
  5
4ED
100
AcDbEntity
  8
detail
 62
    16
  6
CONTINUOUS
370
     5
100
AcDbCircle
 10
1.83238091
 20
-5.56866327
 30
0.0
 40
2.7979699471300E-05
100
AcDbArc
 50
313.96882185
 51
329.12414716
  0
ARC
  5
4EE
100
AcDbEntity
  8
detail
 62
    16
  6
CONTINUOUS
370
     5
100
AcDbCircle
 10
1.83235051
 20
-5.56869259
 30
0.0
 40
2.7979699996955E-05
100
AcDbArc
 50
149.54368901
 51
313.96884301
  0
ARC
  5
4EF
100
AcDbEntity
  8
detail
 62
    16
  6
CONTINUOUS
370
     5
100
AcDbCircle
 10
1.83238091
 20
-5.56866327
 30
0.0
 40
2.7979699471300E-05
100
AcDbArc
 50
313.96882185
 51
329.12414716
  0
ARC
  5
4F0
100
AcDbEntity
  8
detail
 62
    16
  6
CONTINUOUS
370
     5
100
AcDbCircle
 10
1.83235051
 20
-5.56869259
 30
0.0
 40
2.7979699996955E-05
100
AcDbArc
 50
149.54368901
 51
313.96884301
  0
ARC
  5
4F1
100
AcDbEntity
  8
detail
 62
    16
  6
CONTINUOUS
370
     5
100
AcDbCircle
 10
1.83238091
 20
-5.56866327
 30
0.0
 40
2.7979699471300E-05
100
AcDbArc
 50
313.96882185
 51
329.12414716
  0
ARC
  5
4F2
100
AcDbEntity
  8
detail
 62
    16
  6
CONTINUOUS
370
     5
100
AcDbCircle
 10
1.83235051
 20
-5.56869259
 30
0.0
 40
2.7979699996955E-05
100
AcDbArc
 50
149.54368901
 51
313.96884301
  0
ARC
  5
4F3
100
AcDbEntity
  8
detail
 62
    16
  6
CONTINUOUS
370
     5
100
AcDbCircle
 10
1.83238091
 20
-5.56866327
 30
0.0
 40
2.7979699471300E-05
100
AcDbArc
 50
313.96882185
 51
329.12414716
  0
ARC
  5
4F4
100
AcDbEntity
  8
detail
 62
    16
  6
CONTINUOUS
370
     5
100
AcDbCircle
 10
1.83235051
 20
-5.56869259
 30
0.0
 40
2.7979699996955E-05
100
AcDbArc
 50
149.54368901
 51
313.96884301
  0
ARC
  5
4F5
100
AcDbEntity
  8
detail
 62
    16
  6
CONTINUOUS
370
     5
100
AcDbCircle
 10
1.83238091
 20
-5.56866327
 30
0.0
 40
2.7979699471300E-05
100
AcDbArc
 50
313.96882185
 51
329.12414716
  0
ARC
  5
4F6
100
AcDbEntity
  8
detail
 62
    16
  6
CONTINUOUS
370
     5
100
AcDbCircle
 10
1.83235051
 20
-5.56869259
 30
0.0
 40
2.7979699996955E-05
100
AcDbArc
 50
149.54368901
 51
313.96884301
  0
ARC
  5
4F7
100
AcDbEntity
  8
detail
 62
    16
  6
CONTINUOUS
370
     5
100
AcDbCircle
 10
1.83238091
 20
-5.56866327
 30
0.0
 40
2.7979699471300E-05
100
AcDbArc
 50
313.96882185
 51
329.12414716
  0
ARC
  5
4F8
100
AcDbEntity
  8
detail
 62
    16
  6
CONTINUOUS
370
     5
100
AcDbCircle
 10
1.83235051
 20
-5.56869259
 30
0.0
 40
2.7979699996955E-05
100
AcDbArc
 50
149.54368901
 51
313.96884301
  0
ARC
  5
4F9
100
AcDbEntity
  8
detail
 62
    16
  6
CONTINUOUS
370
     5
100
AcDbCircle
 10
1.83238091
 20
-5.56866327
 30
0.0
 40
2.7979699471300E-05
100
AcDbArc
 50
313.96882185
 51
329.12414716
  0
ARC
  5
4FA
100
AcDbEntity
  8
detail
 62
    16
  6
CONTINUOUS
370
     5
100
AcDbCircle
 10
1.83235051
 20
-5.56869259
 30
0.0
 40
2.7979699996955E-05
100
AcDbArc
 50
149.54368901
 51
313.96884301
  0
ARC
  5
4FB
100
AcDbEntity
  8
detail
 62
    16
  6
CONTINUOUS
370
     5
100
AcDbCircle
 10
1.83238091
 20
-5.56866327
 30
0.0
 40
2.7979699471300E-05
100
AcDbArc
 50
313.96882185
 51
329.12414716
  0
ARC
  5
4FC
100
AcDbEntity
  8
detail
 62
    16
  6
CONTINUOUS
370
     5
100
AcDbCircle
 10
1.83235051
 20
-5.56869259
 30
0.0
 40
2.7979699996955E-05
100
AcDbArc
 50
149.54368901
 51
313.96884301
  0
ARC
  5
4FD
100
AcDbEntity
  8
detail
 62
    16
  6
CONTINUOUS
370
     5
100
AcDbCircle
 10
1.83278187
 20
-5.5685468
 30
0.0
 40
0.00017738
100
AcDbArc
 50
313.96884102
 51
40.85046
  0
ARC
  5
4FE
100
AcDbEntity
  8
detail
 62
    16
  6
CONTINUOUS
370
     5
100
AcDbCircle
 10
1.83278187
 20
-5.5685468
 30
0.0
 40
0.00017738
100
AcDbArc
 50
313.96884102
 51
40.85046
  0
ARC
  5
4FF
100
AcDbEntity
  8
detail
 62
    16
  6
CONTINUOUS
370
     5
100
AcDbCircle
 10
1.83343236
 20
-5.56829466
 30
0.0
 40
9.4816500003244E-05
100
AcDbArc
 50
146.215737
 51
62.27187
  0
ARC
  5
500
100
AcDbEntity
  8
detail
 62
    16
  6
CONTINUOUS
370
     5
100
AcDbCircle
 10
1.83278187
 20
-5.5685468
 30
0.0
 40
0.00025153
100
AcDbArc
 50
329.56322102
 51
82.937731
  0
ARC
  5
501
100
AcDbEntity
  8
detail
 62
    16
  6
CONTINUOUS
370
     5
100
AcDbCircle
 10
1.83787183
 20
-5.57362054
 30
0.0
 40
0.00017143
100
AcDbArc
 50
105.310213
 51
191.91019001
  0
ARC
  5
502
100
AcDbEntity
  8
detail
 62
    16
  6
CONTINUOUS
370
     5
100
AcDbCircle
 10
1.83967837
 20
-5.57311227
 30
0.0
 40
0.00204777
100
AcDbArc
 50
331.12443302
 51
344.60420202
  0
ARC
  5
503
100
AcDbEntity
  8
detail
 62
    16
  6
CONTINUOUS
370
     5
100
AcDbCircle
 10
1.83967837
 20
-5.57311227
 30
0.0
 40
0.00204777
100
AcDbArc
 50
195.39581802
 51
208.87558602
  0
ARC
  5
504
100
AcDbEntity
  8
detail
 62
    16
  6
CONTINUOUS
370
     5
100
AcDbCircle
 10
1.84148492
 20
-5.57260399
 30
0.0
 40
0.00017143
100
AcDbArc
 50
285.31022302
 51
11.910181
  0
ARC
  5
505
100
AcDbEntity
  8
detail
 62
    16
  6
CONTINUOUS
370
     5
100
AcDbCircle
 10
1.83967837
 20
-5.57311227
 30
0.0
 40
0.00204777
100
AcDbArc
 50
331.12443302
 51
344.60420202
  0
ARC
  5
506
100
AcDbEntity
  8
detail
 62
    16
  6
CONTINUOUS
370
     5
100
AcDbCircle
 10
1.83787183
 20
-5.57260399
 30
0.0
 40
0.00017143
100
AcDbArc
 50
168.089819
 51
254.68979702
  0
ARC
  5
507
100
AcDbEntity
  8
detail
 62
    16
  6
CONTINUOUS
370
     5
100
AcDbCircle
 10
1.83967837
 20
-5.57311227
 30
0.0
 40
0.00204777
100
AcDbArc
 50
195.39581802
 51
208.87558602
  0
ARC
  5
508
100
AcDbEntity
  8
detail
 62
    16
  6
CONTINUOUS
370
     5
100
AcDbCircle
 10
1.84148492
 20
-5.57260399
 30
0.0
 40
0.00017143
100
AcDbArc
 50
285.31022302
 51
11.910181
  0
ARC
  5
509
100
AcDbEntity
  8
detail
 62
    16
  6
CONTINUOUS
370
     5
100
AcDbCircle
 10
1.83967837
 20
-5.57311227
 30
0.0
 40
0.00204777
100
AcDbArc
 50
331.12443302
 51
344.60420202
  0
ARC
  5
50A
100
AcDbEntity
  8
detail
 62
    16
  6
CONTINUOUS
370
     5
100
AcDbCircle
 10
1.83787183
 20
-5.57260399
 30
0.0
 40
0.00017143
100
AcDbArc
 50
168.089819
 51
254.68979702
  0
ARC
  5
50B
100
AcDbEntity
  8
detail
 62
    16
  6
CONTINUOUS
370
     5
100
AcDbCircle
 10
1.83967837
 20
-5.57311227
 30
0.0
 40
0.00204777
100
AcDbArc
 50
195.39581802
 51
208.87558602
  0
ARC
  5
50C
100
AcDbEntity
  8
detail
 62
    16
  6
CONTINUOUS
370
     5
100
AcDbCircle
 10
1.84148492
 20
-5.57260399
 30
0.0
 40
0.00017143
100
AcDbArc
 50
285.31022302
 51
11.910181
  0
ARC
  5
50D
100
AcDbEntity
  8
detail
 62
    16
  6
CONTINUOUS
370
     5
100
AcDbCircle
 10
1.84148492
 20
-5.57362054
 30
0.0
 40
0.00017143
100
AcDbArc
 50
348.08983002
 51
74.68978699
  0
ARC
  5
50E
100
AcDbEntity
  8
detail
 62
    16
  6
CONTINUOUS
370
     5
100
AcDbCircle
 10
1.83967837
 20
-5.57311227
 30
0.0
 40
0.00204777
100
AcDbArc
 50
331.12443302
 51
344.60420202
  0
ARC
  5
50F
100
AcDbEntity
  8
detail
 62
    16
  6
CONTINUOUS
370
     5
100
AcDbCircle
 10
1.83787183
 20
-5.57260399
 30
0.0
 40
0.00017143
100
AcDbArc
 50
168.089819
 51
254.68979702
  0
ARC
  5
510
100
AcDbEntity
  8
detail
 62
    16
  6
CONTINUOUS
370
     5
100
AcDbCircle
 10
1.83967837
 20
-5.57311227
 30
0.0
 40
0.00204777
100
AcDbArc
 50
195.39581802
 51
208.87558602
  0
ARC
  5
511
100
AcDbEntity
  8
detail
 62
    16
  6
CONTINUOUS
370
     5
100
AcDbCircle
 10
1.83967837
 20
-5.57585569
 30
0.0
 40
0.00072505
100
AcDbArc
 50
204.51138602
 51
335.48863402
  0
ARC
  5
512
100
AcDbEntity
  8
detail
 62
    16
  6
CONTINUOUS
370
     5
100
AcDbCircle
 10
1.83782656
 20
-5.57311227
 30
0.0
 40
0.00034293
100
AcDbArc
 50
270.00001002
 51
90.0
  0
ARC
  5
513
100
AcDbEntity
  8
detail
 62
    16
  6
CONTINUOUS
370
     5
100
AcDbCircle
 10
1.84153019
 20
-5.57311227
 30
0.0
 40
0.00034293
100
AcDbArc
 50
90.0
 51
270.00001002
  0
ARC
  5
514
100
AcDbEntity
  8
detail
 62
    16
  6
CONTINUOUS
370
     5
100
AcDbCircle
 10
1.84148492
 20
-5.57260399
 30
0.0
 40
0.00017143
100
AcDbArc
 50
285.31022302
 51
11.910181
  0
ARC
  5
515
100
AcDbEntity
  8
detail
 62
    16
  6
CONTINUOUS
370
     5
100
AcDbCircle
 10
1.84148492
 20
-5.57362054
 30
0.0
 40
0.00017143
100
AcDbArc
 50
348.08983002
 51
74.68978699
  0
ARC
  5
516
100
AcDbEntity
  8
detail
 62
    16
  6
CONTINUOUS
370
     5
100
AcDbCircle
 10
1.83787183
 20
-5.57260399
 30
0.0
 40
0.00017143
100
AcDbArc
 50
168.089819
 51
254.68979702
  0
ARC
  5
517
100
AcDbEntity
  8
detail
 62
    16
  6
CONTINUOUS
370
     5
100
AcDbCircle
 10
1.83967837
 20
-5.57311227
 30
0.0
 40
0.00204777
100
AcDbArc
 50
15.395808
 51
164.604192
  0
ARC
  5
518
100
AcDbEntity
  8
detail
 62
    16
  6
CONTINUOUS
370
     5
100
AcDbCircle
 10
1.83967837
 20
-5.57585569
 30
0.0
 40
0.00072505
100
AcDbArc
 50
204.51138602
 51
335.48863402
  0
ARC
  5
519
100
AcDbEntity
  8
detail
 62
    16
  6
CONTINUOUS
370
     5
100
AcDbCircle
 10
1.83967837
 20
-5.57585569
 30
0.0
 40
0.00072505
100
AcDbArc
 50
204.51138602
 51
335.48863402
  0
ARC
  5
51A
100
AcDbEntity
  8
detail
 62
    16
  6
CONTINUOUS
370
     5
100
AcDbCircle
 10
1.83967837
 20
-5.57585569
 30
0.0
 40
0.00072505
100
AcDbArc
 50
204.51138602
 51
335.48863402
  0
ARC
  5
51B
100
AcDbEntity
  8
detail
 62
    16
  6
CONTINUOUS
370
     5
100
AcDbCircle
 10
1.8351764
 20
-5.57766259
 30
0.0
 40
0.0005599
100
AcDbArc
 50
39.169975
 51
140.830025
  0
ARC
  5
51C
100
AcDbEntity
  8
detail
 62
    16
  6
CONTINUOUS
370
     5
100
AcDbCircle
 10
1.8351764
 20
-5.58017094
 30
0.0
 40
0.00175
100
AcDbArc
 50
9.5287237304865E-11
 51
180.0
  0
ARC
  5
51D
100
AcDbEntity
  8
detail
 62
    16
  6
CONTINUOUS
370
     5
100
AcDbCircle
 10
1.83546994
 20
-5.58477094
 30
0.0
 40
5.0000000001455E-05
100
AcDbArc
 50
90.0
 51
270.00001002
  0
ARC
  5
51E
100
AcDbEntity
  8
detail
 62
    16
  6
CONTINUOUS
370
     5
100
AcDbCircle
 10
1.83433881
 20
-5.58036108
 30
0.0
 40
8.2922199992754E-05
100
AcDbArc
 50
270.00001001
 51
3.0164298336190E-09
  0
ARC
  5
51F
100
AcDbEntity
  8
detail
 62
    16
  6
CONTINUOUS
370
     5
100
AcDbCircle
 10
1.8334764
 20
-5.58477135
 30
0.0
 40
5.0000000000000E-05
100
AcDbArc
 50
180.00001002
 51
360.00001001
  0
ARC
  5
520
100
AcDbEntity
  8
detail
 62
    16
  6
CONTINUOUS
370
     5
100
AcDbCircle
 10
1.8336264
 20
-5.58037094
 30
0.0
 40
0.0002
100
AcDbArc
 50
90.0
 51
180.00001002
  0
ARC
  5
521
100
AcDbEntity
  8
detail
 62
    16
  6
CONTINUOUS
370
     5
100
AcDbCircle
 10
1.83617889
 20
-5.5845928
 30
0.0
 40
0.00023197
100
AcDbArc
 50
130.316118
 51
213.52956402
  0
ARC
  5
522
100
AcDbEntity
  8
detail
 62
    16
  6
CONTINUOUS
370
     5
100
AcDbCircle
 10
1.83687826
 20
-5.58022094
 30
0.0
 40
5.0000000002547E-05
100
AcDbArc
 50
360.00001001
 51
156.831906
  0
ARC
  5
523
100
AcDbEntity
  8
detail
 62
    16
  6
CONTINUOUS
370
     5
100
AcDbCircle
 10
1.83624439
 20
-5.58413893
 30
0.0
 40
0.00058201
100
AcDbArc
 50
270.00001002
 51
7.1627982568278E-10
  0
ARC
  5
524
100
AcDbEntity
  8
detail
 62
    16
  6
CONTINUOUS
370
     5
100
AcDbCircle
 10
1.83624439
 20
-5.58413893
 30
0.0
 40
0.00068201
100
AcDbArc
 50
270.00001002
 51
6.7238041335946E-10
  0
ARC
  5
525
100
AcDbEntity
  8
detail
 62
    16
  6
CONTINUOUS
370
     5
100
AcDbCircle
 10
1.83433881
 20
-5.58025386
 30
0.0
 40
8.2922199924273E-05
100
AcDbArc
 50
27.04337597
 51
90.00000003
  0
ARC
  5
526
100
AcDbEntity
  8
detail
 62
    16
  6
CONTINUOUS
370
     5
100
AcDbCircle
 10
1.8367264
 20
-5.58041616
 30
0.0
 40
0.0002
100
AcDbArc
 50
58.03346899
 51
90.00000001
  0
ARC
  5
527
100
AcDbEntity
  8
detail
 62
    16
  6
CONTINUOUS
370
     5
100
AcDbCircle
 10
1.8336264
 20
-5.58037094
 30
0.0
 40
9.9999999997010E-05
100
AcDbArc
 50
5.633048
 51
180.00001002
  0
ARC
  5
528
100
AcDbEntity
  8
detail
 62
    16
  6
CONTINUOUS
370
     5
100
AcDbCircle
 10
1.83380884
 20
-5.58036108
 30
0.0
 40
8.2922199990935E-05
100
AcDbArc
 50
180.0
 51
270.00001002
  0
ARC
  5
529
100
AcDbEntity
  8
detail
 62
    16
  6
CONTINUOUS
370
     5
100
AcDbCircle
 10
1.8367264
 20
-5.58041616
 30
0.0
 40
0.0001
100
AcDbArc
 50
0.0
 51
90.0
  0
ARC
  5
52A
100
AcDbEntity
  8
detail
 62
    16
  6
CONTINUOUS
370
     5
100
AcDbCircle
 10
1.83447147
 20
-5.58034961
 30
0.0
 40
4.9741900047647E-05
100
AcDbArc
 50
137.73739801
 51
179.99999998
  0
ARC
  5
52B
100
AcDbEntity
  8
detail
 62
    16
  6
CONTINUOUS
370
     5
100
AcDbCircle
 10
1.8351764
 20
-5.58436593
 30
0.0
 40
5.0000000000000E-05
100
AcDbArc
 50
90.0
 51
270.00001002
  0
ARC
  5
52C
100
AcDbEntity
  8
detail
 62
    16
  6
CONTINUOUS
370
     5
100
AcDbCircle
 10
1.83617889
 20
-5.5845928
 30
0.0
 40
0.00014
100
AcDbArc
 50
118.152177
 51
246.24094702
  0
ARC
  5
52D
100
AcDbEntity
  8
detail
 62
    16
  6
CONTINUOUS
370
     5
100
AcDbCircle
 10
1.83621918
 20
-5.58435958
 30
0.0
 40
4.4131200002370E-05
100
AcDbArc
 50
321.13811602
 51
81.540532
  0
ARC
  5
52E
100
AcDbEntity
  8
detail
 62
    16
  6
CONTINUOUS
370
     5
100
AcDbCircle
 10
1.83881692
 20
-5.57761419
 30
0.0
 40
0.000275
100
AcDbArc
 50
270.00001002
 51
90.0
  0
ARC
  5
52F
100
AcDbEntity
  8
detail
 62
    16
  6
CONTINUOUS
370
     5
100
AcDbCircle
 10
1.84436692
 20
-5.57761419
 30
0.0
 40
0.000275
100
AcDbArc
 50
90.0
 51
270.00001002
  0
ARC
  5
530
100
AcDbEntity
  8
detail
 62
    16
  6
CONTINUOUS
370
     5
100
AcDbCircle
 10
1.84206692
 20
-5.57761419
 30
0.0
 40
0.000275
100
AcDbArc
 50
270.00001002
 51
90.0
  0
ARC
  5
531
100
AcDbEntity
  8
detail
 62
    16
  6
CONTINUOUS
370
     5
100
AcDbCircle
 10
1.84111692
 20
-5.57761419
 30
0.0
 40
0.000275
100
AcDbArc
 50
90.0
 51
270.00001002
  0
ARC
  5
532
100
AcDbEntity
  8
detail
 62
    16
  6
CONTINUOUS
370
     5
100
AcDbCircle
 10
1.84489566
 20
-5.5865313
 30
0.0
 40
5.0000000000728E-05
100
AcDbArc
 50
90.0
 51
180.0
  0
ARC
  5
533
100
AcDbEntity
  8
detail
 62
    16
  6
CONTINUOUS
370
     5
100
AcDbCircle
 10
1.83828819
 20
-5.5865313
 30
0.0
 40
5.0000000000728E-05
100
AcDbArc
 50
8.3376332640544E-10
 51
90.0
  0
ARC
  5
534
100
AcDbEntity
  8
detail
 62
    16
  6
CONTINUOUS
370
     5
100
AcDbCircle
 10
1.84458557
 20
-5.58783529
 30
0.0
 40
0.00035
100
AcDbArc
 50
72.271012
 51
360.00001002
  0
ARC
  5
535
100
AcDbEntity
  8
detail
 62
    16
  6
CONTINUOUS
370
     5
100
AcDbCircle
 10
1.83859828
 20
-5.58783529
 30
0.0
 40
0.00035
100
AcDbArc
 50
180.00001002
 51
107.728988
  0
ARC
  5
536
100
AcDbEntity
  8
detail
 62
    16
  6
CONTINUOUS
370
     5
100
AcDbCircle
 10
1.83881692
 20
-5.58061419
 30
0.0
 40
0.000275
100
AcDbArc
 50
270.00001002
 51
90.0
  0
ARC
  5
537
100
AcDbEntity
  8
detail
 62
    16
  6
CONTINUOUS
370
     5
100
AcDbCircle
 10
1.83881692
 20
-5.57861419
 30
0.0
 40
0.000275
100
AcDbArc
 50
270.00001002
 51
90.0
  0
ARC
  5
538
100
AcDbEntity
  8
detail
 62
    16
  6
CONTINUOUS
370
     5
100
AcDbCircle
 10
1.83881692
 20
-5.57961419
 30
0.0
 40
0.000275
100
AcDbArc
 50
270.00001002
 51
90.0
  0
ARC
  5
539
100
AcDbEntity
  8
detail
 62
    16
  6
CONTINUOUS
370
     5
100
AcDbCircle
 10
1.84436692
 20
-5.57961419
 30
0.0
 40
0.000275
100
AcDbArc
 50
90.0
 51
270.00001002
  0
ARC
  5
53A
100
AcDbEntity
  8
detail
 62
    16
  6
CONTINUOUS
370
     5
100
AcDbCircle
 10
1.84436692
 20
-5.57861419
 30
0.0
 40
0.000275
100
AcDbArc
 50
90.0
 51
270.00001002
  0
ARC
  5
53B
100
AcDbEntity
  8
detail
 62
    16
  6
CONTINUOUS
370
     5
100
AcDbCircle
 10
1.84436692
 20
-5.58061419
 30
0.0
 40
0.000275
100
AcDbArc
 50
90.0
 51
270.00001002
  0
ARC
  5
53C
100
AcDbEntity
  8
detail
 62
    16
  6
CONTINUOUS
370
     5
100
AcDbCircle
 10
1.84111692
 20
-5.57961419
 30
0.0
 40
0.000275
100
AcDbArc
 50
90.0
 51
270.00001002
  0
ARC
  5
53D
100
AcDbEntity
  8
detail
 62
    16
  6
CONTINUOUS
370
     5
100
AcDbCircle
 10
1.84206692
 20
-5.57961419
 30
0.0
 40
0.000275
100
AcDbArc
 50
270.00001002
 51
90.0
  0
ARC
  5
53E
100
AcDbEntity
  8
detail
 62
    16
  6
CONTINUOUS
370
     5
100
AcDbCircle
 10
1.84111692
 20
-5.58061419
 30
0.0
 40
0.000275
100
AcDbArc
 50
90.0
 51
270.00001002
  0
ARC
  5
53F
100
AcDbEntity
  8
detail
 62
    16
  6
CONTINUOUS
370
     5
100
AcDbCircle
 10
1.84206692
 20
-5.58061419
 30
0.0
 40
0.000275
100
AcDbArc
 50
270.00001002
 51
90.0
  0
ARC
  5
540
100
AcDbEntity
  8
detail
 62
    16
  6
CONTINUOUS
370
     5
100
AcDbCircle
 10
1.84206692
 20
-5.57861419
 30
0.0
 40
0.000275
100
AcDbArc
 50
270.00001002
 51
90.0
  0
ARC
  5
541
100
AcDbEntity
  8
detail
 62
    16
  6
CONTINUOUS
370
     5
100
AcDbCircle
 10
1.84111692
 20
-5.57861419
 30
0.0
 40
0.000275
100
AcDbArc
 50
90.0
 51
270.00001002
  0
ARC
  5
542
100
AcDbEntity
  8
detail
 62
    16
  6
CONTINUOUS
370
     5
100
AcDbCircle
 10
1.83918744
 20
-5.58684976
 30
0.0
 40
4.4887199996545E-05
100
AcDbArc
 50
315.00001002
 51
135.00000001
  0
ARC
  5
543
100
AcDbEntity
  8
detail
 62
    16
  6
CONTINUOUS
370
     5
100
AcDbCircle
 10
1.84402341
 20
-5.58684976
 30
0.0
 40
4.4887199995773E-05
100
AcDbArc
 50
44.99999999
 51
225.00001001
  0
ARC
  5
544
100
AcDbEntity
  8
detail
 62
    16
  6
CONTINUOUS
370
     5
100
AcDbCircle
 10
1.84144682
 20
-5.57065377
 30
0.0
 40
8.1474800022284E-05
100
AcDbArc
 50
45.00000001
 51
134.99999999
  0
ARC
  5
545
100
AcDbEntity
  8
detail
 62
    16
  6
CONTINUOUS
370
     5
100
AcDbCircle
 10
1.84209932
 20
-5.57130627
 30
0.0
 40
8.1474800015081E-05
100
AcDbArc
 50
315.00001003
 51
44.99999999
  0
ARC
  5
546
100
AcDbEntity
  8
detail
 62
    16
  6
CONTINUOUS
370
     5
100
AcDbCircle
 10
1.83243211
 20
-5.58863011
 30
0.0
 40
0.00017525
100
AcDbArc
 50
6.91623
 51
177.920678
  0
ARC
  5
547
100
AcDbEntity
  8
detail
 62
    16
  6
CONTINUOUS
370
     5
100
AcDbCircle
 10
1.83243211
 20
-5.58863011
 30
0.0
 40
0.00014829
100
AcDbArc
 50
8.297827
 51
177.920678
  0
ARC
  5
548
100
AcDbEntity
  8
detail
 62
    16
  6
CONTINUOUS
370
     5
100
AcDbCircle
 10
1.83243211
 20
-5.58863011
 30
0.0
 40
0.00012133
100
AcDbArc
 50
357.82107102
 51
182.17665401
  0
ARC
  5
549
100
AcDbEntity
  8
detail
 62
    16
  6
CONTINUOUS
370
     5
100
AcDbCircle
 10
1.83258435
 20
-5.58868851
 30
0.0
 40
3.3027500001359E-05
100
AcDbArc
 50
177.82105899
 51
8.12421702
  0
ARC
  5
54A
100
AcDbEntity
  8
detail
 62
    16
  6
CONTINUOUS
370
     5
100
AcDbCircle
 10
1.83258435
 20
-5.58868851
 30
0.0
 40
6.0663000030112E-06
100
AcDbArc
 50
179.11150101
 51
8.29782692
  0
ARC
  5
54B
100
AcDbEntity
  8
detail
 62
    16
  6
CONTINUOUS
370
     5
100
AcDbCircle
 10
1.83905104
 20
-5.58684223
 30
0.0
 40
0.00711054
100
AcDbArc
 50
185.86280002
 51
195.70969702
  0
ARC
  5
54C
100
AcDbEntity
  8
detail
 62
    16
  6
CONTINUOUS
370
     5
100
AcDbCircle
 10
1.83905104
 20
-5.58684223
 30
0.0
 40
0.0071375
100
AcDbArc
 50
176.187196
 51
185.06030502
  0
ARC
  5
54D
100
AcDbEntity
  8
detail
 62
    16
  6
CONTINUOUS
370
     5
100
AcDbCircle
 10
1.83905104
 20
-5.58684223
 30
0.0
 40
0.0071375
100
AcDbArc
 50
185.81781302
 51
195.70969702
  0
ARC
  5
54E
100
AcDbEntity
  8
detail
 62
    16
  6
CONTINUOUS
370
     5
100
AcDbCircle
 10
1.83244816
 20
-5.5851345
 30
0.0
 40
6.0662800002319E-05
100
AcDbArc
 50
329.61035302
 51
66.287085
  0
ARC
  5
54F
100
AcDbEntity
  8
detail
 62
    16
  6
CONTINUOUS
370
     5
100
AcDbCircle
 10
1.83245104
 20
-5.58513582
 30
0.0
 40
3.3701499996436E-05
100
AcDbArc
 50
1.20309698
 51
66.787993
  0
ARC
  5
550
100
AcDbEntity
  8
detail
 62
    16
  6
CONTINUOUS
370
     5
100
AcDbCircle
 10
1.83905104
 20
-5.58684223
 30
0.0
 40
0.0071375
100
AcDbArc
 50
166.632902
 51
175.429689
  0
ARC
  5
551
100
AcDbEntity
  8
detail
 62
    16
  6
CONTINUOUS
370
     5
100
AcDbCircle
 10
1.83905104
 20
-5.58684223
 30
0.0
 40
0.00711054
100
AcDbArc
 50
166.632902
 51
175.384715
  0
ARC
  5
552
100
AcDbEntity
  8
detail
 62
    16
  6
CONTINUOUS
370
     5
100
AcDbCircle
 10
1.83905104
 20
-5.58684223
 30
0.0
 40
0.00711054
100
AcDbArc
 50
176.232189
 51
185.01532502
  0
ARC
  5
553
100
AcDbEntity
  8
detail
 62
    16
  6
CONTINUOUS
370
     5
100
AcDbCircle
 10
1.8353862
 20
-5.58648968
 30
0.0
 40
0.00320208
100
AcDbArc
 50
154.974186
 51
211.95055102
  0
ARC
  5
554
100
AcDbEntity
  8
detail
 62
    16
  6
CONTINUOUS
370
     5
100
AcDbCircle
 10
1.8353862
 20
-5.58648968
 30
0.0
 40
0.00317516
100
AcDbArc
 50
155.345613
 51
211.97619202
  0
ARC
  5
555
100
AcDbEntity
  8
detail
 62
    16
  6
CONTINUOUS
370
     5
100
AcDbCircle
 10
1.8322126
 20
-5.58876567
 30
0.0
 40
3.3701500001006E-05
100
AcDbArc
 50
195.70969701
 51
358.98758503
  0
ARC
  5
556
100
AcDbEntity
  8
detail
 62
    16
  6
CONTINUOUS
370
     5
100
AcDbCircle
 10
1.83245095
 20
-5.58824829
 30
0.0
 40
0.00022243
100
AcDbArc
 50
357.45217302
 51
178.98758
  0
ARC
  5
557
100
AcDbEntity
  8
detail
 62
    16
  6
CONTINUOUS
370
     5
100
AcDbCircle
 10
1.8322126
 20
-5.58876567
 30
0.0
 40
6.7403000001092E-06
100
AcDbArc
 50
195.70969698
 51
358.9875851
  0
ARC
  5
558
100
AcDbEntity
  8
detail
 62
    16
  6
CONTINUOUS
370
     5
100
AcDbCircle
 10
1.83245095
 20
-5.58824829
 30
0.0
 40
0.00019547
100
AcDbArc
 50
357.45217302
 51
178.98758
  0
ARC
  5
559
100
AcDbEntity
  8
detail
 62
    16
  6
CONTINUOUS
370
     5
100
AcDbCircle
 10
1.83255123
 20
-5.58824939
 30
0.0
 40
0.00013481
100
AcDbArc
 50
355.91910902
 51
28.92946499
  0
ARC
  5
55A
100
AcDbEntity
  8
detail
 62
    16
  6
CONTINUOUS
370
     5
100
AcDbCircle
 10
1.83255123
 20
-5.58824939
 30
0.0
 40
0.00016177
100
AcDbArc
 50
355.91910901
 51
28.92946501
  0
ARC
  5
55B
100
AcDbEntity
  8
detail
 62
    16
  6
CONTINUOUS
370
     5
100
AcDbCircle
 10
1.83241831
 20
-5.58462864
 30
0.0
 40
0.00017525
100
AcDbArc
 50
6.91623
 51
177.920678
  0
ARC
  5
55C
100
AcDbEntity
  8
detail
 62
    16
  6
CONTINUOUS
370
     5
100
AcDbCircle
 10
1.83241831
 20
-5.58462864
 30
0.0
 40
0.00014829
100
AcDbArc
 50
8.297827
 51
177.920678
  0
ARC
  5
55D
100
AcDbEntity
  8
detail
 62
    16
  6
CONTINUOUS
370
     5
100
AcDbCircle
 10
1.83241831
 20
-5.58462864
 30
0.0
 40
0.00012133
100
AcDbArc
 50
357.82107101
 51
182.17665402
  0
ARC
  5
55E
100
AcDbEntity
  8
detail
 62
    16
  6
CONTINUOUS
370
     5
100
AcDbCircle
 10
1.83257055
 20
-5.58468704
 30
0.0
 40
3.3027499999771E-05
100
AcDbArc
 50
177.82105902
 51
8.12421699
  0
ARC
  5
55F
100
AcDbEntity
  8
detail
 62
    16
  6
CONTINUOUS
370
     5
100
AcDbCircle
 10
1.83257055
 20
-5.58468704
 30
0.0
 40
6.0663000024105E-06
100
AcDbArc
 50
179.11150116
 51
8.29782691
  0
ARC
  5
560
100
AcDbEntity
  8
detail
 62
    16
  6
CONTINUOUS
370
     5
100
AcDbCircle
 10
1.83234487
 20
-5.58500366
 30
0.0
 40
6.0662800002504E-05
100
AcDbArc
 50
182.17665403
 51
252.42508102
  0
ARC
  5
561
100
AcDbEntity
  8
detail
 62
    16
  6
CONTINUOUS
370
     5
100
AcDbCircle
 10
1.83234487
 20
-5.58500366
 30
0.0
 40
3.3701499986863E-05
100
AcDbArc
 50
182.17665401
 51
252.42508103
  0
ARC
  5
562
100
AcDbEntity
  8
detail
 62
    16
  6
CONTINUOUS
370
     5
100
AcDbCircle
 10
1.83219288
 20
-5.58507863
 30
0.0
 40
3.3701499986275E-05
100
AcDbArc
 50
301.66865801
 51
357.92068904
  0
ARC
  5
563
100
AcDbEntity
  8
detail
 62
    16
  6
CONTINUOUS
370
     5
100
AcDbCircle
 10
1.83216592
 20
-5.58520614
 30
0.0
 40
3.3701499949306E-05
100
AcDbArc
 50
121.66864697
 51
166.63290206
  0
ARC
  5
564
100
AcDbEntity
  8
detail
 62
    16
  6
CONTINUOUS
370
     5
100
AcDbCircle
 10
1.83219288
 20
-5.58507863
 30
0.0
 40
6.0662799983261E-05
100
AcDbArc
 50
301.668658
 51
357.92068902
  0
ARC
  5
565
100
AcDbEntity
  8
detail
 62
    16
  6
CONTINUOUS
370
     5
100
AcDbCircle
 10
1.83216592
 20
-5.58520614
 30
0.0
 40
6.0662799882716E-05
100
AcDbArc
 50
121.66864696
 51
166.63290204
  0
ARC
  5
566
100
AcDbEntity
  8
detail
 62
    16
  6
CONTINUOUS
370
     5
100
AcDbCircle
 10
1.83238438
 20
-5.58874401
 30
0.0
 40
4.0441799999523E-05
100
AcDbArc
 50
56.513085
 51
252.52613502
  0
ARC
  5
567
100
AcDbEntity
  8
detail
 62
    16
  6
CONTINUOUS
370
     5
100
AcDbCircle
 10
1.83238686
 20
-5.58874316
 30
0.0
 40
1.3480599995820E-05
100
AcDbArc
 50
72.52611996
 51
252.52613505
  0
ARC
  5
568
100
AcDbEntity
  8
detail
 62
    16
  6
CONTINUOUS
370
     5
100
AcDbCircle
 10
1.83250635
 20
-5.5886267
 30
0.0
 40
0.00014523
100
AcDbArc
 50
250.15309602
 51
4.535121
  0
ARC
  5
569
100
AcDbEntity
  8
detail
 62
    16
  6
CONTINUOUS
370
     5
100
AcDbCircle
 10
1.83250635
 20
-5.5886267
 30
0.0
 40
0.0001738
100
AcDbArc
 50
247.88434502
 51
4.535121
  0
ARC
  5
56A
100
AcDbEntity
  8
detail
 62
    16
  6
CONTINUOUS
370
     5
100
AcDbCircle
 10
1.83250635
 20
-5.5886267
 30
0.0
 40
0.00020236
100
AcDbArc
 50
246.24700101
 51
4.535121
  0
CIRCLE
  5
56B
100
AcDbEntity
  8
detail
 62
    16
  6
CONTINUOUS
370
     5
100
AcDbCircle
 10
1.84309192
 20
-5.5776273
 30
0.0
 40
0.0002
  0
CIRCLE
  5
56C
100
AcDbEntity
  8
detail
 62
    16
  6
CONTINUOUS
370
     5
100
AcDbCircle
 10
1.84309192
 20
-5.5776273
 30
0.0
 40
0.00025
  0
CIRCLE
  5
56D
100
AcDbEntity
  8
detail
 62
    16
  6
CONTINUOUS
370
     5
100
AcDbCircle
 10
1.84309192
 20
-5.5776273
 30
0.0
 40
0.0002
  0
CIRCLE
  5
56E
100
AcDbEntity
  8
detail
 62
    16
  6
CONTINUOUS
370
     5
100
AcDbCircle
 10
1.84309192
 20
-5.5776273
 30
0.0
 40
0.00025
  0
CIRCLE
  5
56F
100
AcDbEntity
  8
detail
 62
    16
  6
CONTINUOUS
370
     5
100
AcDbCircle
 10
1.84309192
 20
-5.5776273
 30
0.0
 40
0.0002
  0
CIRCLE
  5
570
100
AcDbEntity
  8
detail
 62
    16
  6
CONTINUOUS
370
     5
100
AcDbCircle
 10
1.84309192
 20
-5.5776273
 30
0.0
 40
0.00025
  0
CIRCLE
  5
571
100
AcDbEntity
  8
detail
 62
    16
  6
CONTINUOUS
370
     5
100
AcDbCircle
 10
1.84309192
 20
-5.5776273
 30
0.0
 40
0.0002
  0
CIRCLE
  5
572
100
AcDbEntity
  8
detail
 62
    16
  6
CONTINUOUS
370
     5
100
AcDbCircle
 10
1.84309192
 20
-5.5776273
 30
0.0
 40
0.00025
  0
CIRCLE
  5
573
100
AcDbEntity
  8
detail
 62
    16
  6
CENTER
370
     5
100
AcDbCircle
 10
1.83970045
 20
-5.57311227
 30
0.0
 40
0.00616522
  0
CIRCLE
  5
574
100
AcDbEntity
  8
detail
 62
    16
  6
CONTINUOUS
370
     5
100
AcDbCircle
 10
1.83967837
 20
-5.57585569
 30
0.0
 40
0.00019596
  0
CIRCLE
  5
575
100
AcDbEntity
  8
detail
 62
    16
  6
CONTINUOUS
370
     5
100
AcDbCircle
 10
1.83967837
 20
-5.57585569
 30
0.0
 40
0.00024495
  0
CIRCLE
  5
576
100
AcDbEntity
  8
detail
 62
    16
  6
CONTINUOUS
370
     5
100
AcDbCircle
 10
1.83967837
 20
-5.57311227
 30
0.0
 40
0.00078384
  0
CIRCLE
  5
577
100
AcDbEntity
  8
detail
 62
    16
  6
CONTINUOUS
370
     5
100
AcDbCircle
 10
1.83967837
 20
-5.57311227
 30
0.0
 40
0.00088182
  0
CIRCLE
  5
578
100
AcDbEntity
  8
detail
 62
    16
  6
CONTINUOUS
370
     5
100
AcDbCircle
 10
1.83967837
 20
-5.57311227
 30
0.0
 40
0.00129333
  0
CIRCLE
  5
579
100
AcDbEntity
  8
detail
 62
    16
  6
CONTINUOUS
370
     5
100
AcDbCircle
 10
1.83967837
 20
-5.57585569
 30
0.0
 40
0.00019596
  0
CIRCLE
  5
57A
100
AcDbEntity
  8
detail
 62
    16
  6
CONTINUOUS
370
     5
100
AcDbCircle
 10
1.83967837
 20
-5.57585569
 30
0.0
 40
0.00024495
  0
CIRCLE
  5
57B
100
AcDbEntity
  8
detail
 62
    16
  6
CONTINUOUS
370
     5
100
AcDbCircle
 10
1.83967837
 20
-5.57311227
 30
0.0
 40
0.00078384
  0
CIRCLE
  5
57C
100
AcDbEntity
  8
detail
 62
    16
  6
CONTINUOUS
370
     5
100
AcDbCircle
 10
1.83967837
 20
-5.57311227
 30
0.0
 40
0.00088182
  0
CIRCLE
  5
57D
100
AcDbEntity
  8
detail
 62
    16
  6
CONTINUOUS
370
     5
100
AcDbCircle
 10
1.83967837
 20
-5.57311227
 30
0.0
 40
0.00129333
  0
CIRCLE
  5
57E
100
AcDbEntity
  8
detail
 62
    16
  6
CONTINUOUS
370
     5
100
AcDbCircle
 10
1.83967837
 20
-5.57585569
 30
0.0
 40
0.00019596
  0
CIRCLE
  5
57F
100
AcDbEntity
  8
detail
 62
    16
  6
CONTINUOUS
370
     5
100
AcDbCircle
 10
1.83967837
 20
-5.57585569
 30
0.0
 40
0.00024495
  0
CIRCLE
  5
580
100
AcDbEntity
  8
detail
 62
    16
  6
CONTINUOUS
370
     5
100
AcDbCircle
 10
1.83967837
 20
-5.57311227
 30
0.0
 40
0.00078384
  0
CIRCLE
  5
581
100
AcDbEntity
  8
detail
 62
    16
  6
CONTINUOUS
370
     5
100
AcDbCircle
 10
1.83967837
 20
-5.57311227
 30
0.0
 40
0.00088182
  0
CIRCLE
  5
582
100
AcDbEntity
  8
detail
 62
    16
  6
CONTINUOUS
370
     5
100
AcDbCircle
 10
1.83967837
 20
-5.57311227
 30
0.0
 40
0.00129333
  0
CIRCLE
  5
583
100
AcDbEntity
  8
detail
 62
    16
  6
CONTINUOUS
370
     5
100
AcDbCircle
 10
1.83967837
 20
-5.57585569
 30
0.0
 40
0.00019596
  0
CIRCLE
  5
584
100
AcDbEntity
  8
detail
 62
    16
  6
CONTINUOUS
370
     5
100
AcDbCircle
 10
1.83967837
 20
-5.57585569
 30
0.0
 40
0.00024495
  0
CIRCLE
  5
585
100
AcDbEntity
  8
detail
 62
    16
  6
CONTINUOUS
370
     5
100
AcDbCircle
 10
1.83967837
 20
-5.57311227
 30
0.0
 40
0.00078384
  0
CIRCLE
  5
586
100
AcDbEntity
  8
detail
 62
    16
  6
CONTINUOUS
370
     5
100
AcDbCircle
 10
1.83967837
 20
-5.57311227
 30
0.0
 40
0.00088182
  0
CIRCLE
  5
587
100
AcDbEntity
  8
detail
 62
    16
  6
CONTINUOUS
370
     5
100
AcDbCircle
 10
1.83967837
 20
-5.57311227
 30
0.0
 40
0.00129333
  0
CIRCLE
  5
588
100
AcDbEntity
  8
detail
 62
    16
  6
CONTINUOUS
370
     5
100
AcDbCircle
 10
1.8351764
 20
-5.57761913
 30
0.0
 40
0.0002
  0
CIRCLE
  5
589
100
AcDbEntity
  8
detail
 62
    16
  6
CONTINUOUS
370
     5
100
AcDbCircle
 10
1.8351764
 20
-5.57761913
 30
0.0
 40
0.00025
  0
CIRCLE
  5
58A
100
AcDbEntity
  8
detail
 62
    16
  6
CONTINUOUS
370
     5
100
AcDbCircle
 10
1.8351764
 20
-5.57761913
 30
0.0
 40
0.0002
  0
CIRCLE
  5
58B
100
AcDbEntity
  8
detail
 62
    16
  6
CONTINUOUS
370
     5
100
AcDbCircle
 10
1.8351764
 20
-5.58227115
 30
0.0
 40
0.00069667
  0
CIRCLE
  5
58C
100
AcDbEntity
  8
detail
 62
    16
  6
CONTINUOUS
370
     5
100
AcDbCircle
 10
1.84009192
 20
-5.58061419
 30
0.0
 40
0.00025
  0
CIRCLE
  5
58D
100
AcDbEntity
  8
detail
 62
    16
  6
CONTINUOUS
370
     5
100
AcDbCircle
 10
1.84009192
 20
-5.5796273
 30
0.0
 40
0.00025
  0
CIRCLE
  5
58E
100
AcDbEntity
  8
detail
 62
    16
  6
CONTINUOUS
370
     5
100
AcDbCircle
 10
1.84009192
 20
-5.5786273
 30
0.0
 40
0.00025
  0
CIRCLE
  5
58F
100
AcDbEntity
  8
detail
 62
    16
  6
CONTINUOUS
370
     5
100
AcDbCircle
 10
1.84309192
 20
-5.58061419
 30
0.0
 40
0.00025
  0
CIRCLE
  5
590
100
AcDbEntity
  8
detail
 62
    16
  6
CONTINUOUS
370
     5
100
AcDbCircle
 10
1.84309192
 20
-5.57961419
 30
0.0
 40
0.00025
  0
CIRCLE
  5
591
100
AcDbEntity
  8
detail
 62
    16
  6
CONTINUOUS
370
     5
100
AcDbCircle
 10
1.84309192
 20
-5.57861419
 30
0.0
 40
0.00025
  0
CIRCLE
  5
592
100
AcDbEntity
  8
detail
 62
    16
  6
CONTINUOUS
370
     5
100
AcDbCircle
 10
1.84009192
 20
-5.5776273
 30
0.0
 40
0.0002
  0
CIRCLE
  5
593
100
AcDbEntity
  8
detail
 62
    16
  6
CONTINUOUS
370
     5
100
AcDbCircle
 10
1.84009192
 20
-5.5776273
 30
0.0
 40
0.00025
  0
CIRCLE
  5
594
100
AcDbEntity
  8
detail
 62
    16
  6
CONTINUOUS
370
     5
100
AcDbCircle
 10
1.84009192
 20
-5.5776273
 30
0.0
 40
0.0002
  0
CIRCLE
  5
595
100
AcDbEntity
  8
detail
 62
    16
  6
CONTINUOUS
370
     5
100
AcDbCircle
 10
1.84009192
 20
-5.5776273
 30
0.0
 40
0.00025
  0
CIRCLE
  5
596
100
AcDbEntity
  8
detail
 62
    16
  6
CONTINUOUS
370
     5
100
AcDbCircle
 10
1.84009192
 20
-5.5776273
 30
0.0
 40
0.0002
  0
CIRCLE
  5
597
100
AcDbEntity
  8
detail
 62
    16
  6
CONTINUOUS
370
     5
100
AcDbCircle
 10
1.84009192
 20
-5.5776273
 30
0.0
 40
0.00025
  0
CIRCLE
  5
598
100
AcDbEntity
  8
detail
 62
    16
  6
CONTINUOUS
370
     5
100
AcDbCircle
 10
1.84009192
 20
-5.5776273
 30
0.0
 40
0.0002
  0
CIRCLE
  5
599
100
AcDbEntity
  8
detail
 62
    16
  6
CONTINUOUS
370
     5
100
AcDbCircle
 10
1.84009192
 20
-5.5776273
 30
0.0
 40
0.00025
  0
HATCH
  5
59A
100
AcDbEntity
  8
detail
 62
    16
100
AcDbHatch
 10
0.0
 20
0.0
 30
0.0
210
0.0
220
0.0
230
1.0
  2
DOPPELLINIE_1_4
 70
     0
 71
     0
 91
        1
 92
        7
 72
     0
 73
     1
 93
        8
 10
1.8391557
 20
-5.58681802
 10
1.83856782
 20
-5.5874059
 10
1.8391557
 20
-5.5874059
 10
1.8391557
 20
-5.58858166
 10
1.8392557
 20
-5.58858166
 10
1.8392557
 20
-5.5873059
 10
1.83879478
 20
-5.5873059
 10
1.83879243
 20
-5.58730825
 97
        0
 75
     0
 76
     2
 52
0.0
 41
1.0
 77
     0
 78
     2
 53
45.0
 43
0.0
 44
0.0
 45
-0.0001149
 46
0.0001149
 79
     2
 49
0.0025
 49
-2.4999999368447E-08
 53
45.0
 43
0.0
 44
3.2499998807907E-05
 45
-0.0001149
 46
0.0001149
 79
     2
 49
0.0025
 49
-2.4999999368447E-08
 47
0.775229
 98
        1
 10
0.0
 20
0.0
  0
HATCH
  5
59B
100
AcDbEntity
  8
detail
 62
    16
100
AcDbHatch
 10
0.0
 20
0.0
 30
0.0
210
0.0
220
0.0
230
1.0
  2
DOPPELLINIE_1_4
 70
     0
 71
     0
 91
        1
 92
        7
 72
     0
 73
     1
 93
        8
 10
1.83672741
 20
-5.5743346
 10
1.83686628
 20
-5.57427707
 10
1.83851357
 20
-5.57592436
 10
1.84084318
 20
-5.57592436
 10
1.84249046
 20
-5.57427707
 10
1.84262934
 20
-5.5743346
 10
1.84090071
 20
-5.57606323
 10
1.83845604
 20
-5.57606323
 97
        0
 75
     0
 76
     2
 52
0.0
 41
1.0
 77
     0
 78
     2
 53
45.0
 43
0.0
 44
0.0
 45
-0.0001149
 46
0.0001149
 79
     2
 49
0.0025
 49
-2.4999999368447E-08
 53
45.0
 43
0.0
 44
3.2499998807907E-05
 45
-0.0001149
 46
0.0001149
 79
     2
 49
0.0025
 49
-2.4999999368447E-08
 47
0.775229
 98
        1
 10
0.0
 20
0.0
  0
HATCH
  5
59C
100
AcDbEntity
  8
detail
 62
    16
100
AcDbHatch
 10
0.0
 20
0.0
 30
0.0
210
0.0
220
0.0
230
1.0
  2
DOPPELLINIE_1_4
 70
     0
 71
     0
 91
        1
 92
        7
 72
     0
 73
     1
 93
       12
 10
1.83672741
 20
-5.5743346
 10
1.83686628
 20
-5.57427707
 10
1.83686628
 20
-5.57194746
 10
1.83851357
 20
-5.57030018
 10
1.84084318
 20
-5.57030018
 10
1.84249046
 20
-5.57194746
 10
1.84249046
 20
-5.57427707
 10
1.84262934
 20
-5.5743346
 10
1.84262934
 20
-5.57188993
 10
1.84090071
 20
-5.5701613
 10
1.83845604
 20
-5.5701613
 10
1.83672741
 20
-5.57188993
 97
        0
 75
     0
 76
     2
 52
0.0
 41
1.0
 77
     0
 78
     2
 53
45.0
 43
0.0
 44
0.0
 45
-0.0001149
 46
0.0001149
 79
     2
 49
0.0025
 49
-2.4999999368447E-08
 53
45.0
 43
0.0
 44
3.2499998807907E-05
 45
-0.0001149
 46
0.0001149
 79
     2
 49
0.0025
 49
-2.4999999368447E-08
 47
0.775229
 98
        1
 10
0.0
 20
0.0
  0
HATCH
  5
59D
100
AcDbEntity
  8
detail
 62
    16
100
AcDbHatch
 10
0.0
 20
0.0
 30
0.0
210
0.0
220
0.0
230
1.0
  2
DOPPELLINIE_1_4
 70
     0
 71
     0
 91
        1
 92
        7
 72
     0
 73
     1
 93
        6
 10
1.83709192
 20
-5.58873166
 10
1.83709192
 20
-5.58868501
 10
1.8371516
 20
-5.58858166
 10
1.84603225
 20
-5.58858166
 10
1.84609192
 20
-5.58868501
 10
1.84609192
 20
-5.58873166
 97
        0
 75
     0
 76
     2
 52
0.0
 41
1.0
 77
     0
 78
     2
 53
45.0
 43
0.0
 44
0.0
 45
-0.0001149
 46
0.0001149
 79
     2
 49
0.0025
 49
-2.4999999368447E-08
 53
45.0
 43
0.0
 44
3.2499998807907E-05
 45
-0.0001149
 46
0.0001149
 79
     2
 49
0.0025
 49
-2.4999999368447E-08
 47
0.775229
 98
        1
 10
0.0
 20
0.0
  0
HATCH
  5
59E
100
AcDbEntity
  8
detail
 62
    16
100
AcDbHatch
 10
0.0
 20
0.0
 30
0.0
210
0.0
220
0.0
230
1.0
  2
DOPPELLINIE_1_4
 70
     0
 71
     0
 91
        1
 92
        7
 72
     0
 73
     1
 93
        8
 10
1.84441841
 20
-5.58730825
 10
1.84441606
 20
-5.5873059
 10
1.84395515
 20
-5.5873059
 10
1.84395515
 20
-5.58858166
 10
1.84405512
 20
-5.58858166
 10
1.84405512
 20
-5.5874059
 10
1.84464299
 20
-5.5874059
 10
1.84405512
 20
-5.58681802
 97
        0
 75
     0
 76
     2
 52
0.0
 41
1.0
 77
     0
 78
     2
 53
45.0
 43
0.0
 44
0.0
 45
-0.0001149
 46
0.0001149
 79
     2
 49
0.0025
 49
-2.4999999368447E-08
 53
45.0
 43
0.0
 44
3.2499998807907E-05
 45
-0.0001149
 46
0.0001149
 79
     2
 49
0.0025
 49
-2.4999999368447E-08
 47
0.775229
 98
        1
 10
0.0
 20
0.0
  0
HATCH
  5
59F
100
AcDbEntity
  8
detail
 62
    16
100
AcDbHatch
 10
0.0
 20
0.0
 30
0.0
210
0.0
220
0.0
230
1.0
  2
DOPPELLINIE_1_4
 70
     0
 71
     0
 91
        1
 92
        7
 72
     0
 73
     1
 93
        4
 10
1.83918848
 20
-5.57262237
 10
1.84016827
 20
-5.57262237
 10
1.84016827
 20
-5.57360216
 10
1.83918848
 20
-5.57360216
 97
        0
 75
     0
 76
     2
 52
0.0
 41
1.0
 77
     0
 78
     2
 53
45.0
 43
0.0
 44
0.0
 45
-0.0001149
 46
0.0001149
 79
     2
 49
0.0025
 49
-2.4999999368447E-08
 53
45.0
 43
0.0
 44
3.2499998807907E-05
 45
-0.0001149
 46
0.0001149
 79
     2
 49
0.0025
 49
-2.4999999368447E-08
 47
0.775229
 98
        1
 10
0.0
 20
0.0
  0
LWPOLYLINE
  5
5A0
100
AcDbEntity
  8
detail
 62
    16
  6
CONTINUOUS
370
     5
100
AcDbPolyline
 90
       17
 70
     0
 43
0.0
 10
1.83290501
 20
-5.56867447
 10
1.83290302
 20
-5.56867822
 10
1.83289717
 20
-5.56868862
 10
1.83288765
 20
-5.56870437
 10
1.83287465
 20
-5.56872421
 10
1.83285834
 20
-5.56874683
 10
1.83283892
 20
-5.56877097
 10
1.83281657
 20
-5.56879532
 10
1.83279148
 20
-5.56881861
 10
1.83277786
 20
-5.5688296
 10
1.83276426
 20
-5.56883968
 10
1.83275124
 20
-5.5688487
 10
1.83273934
 20
-5.56885648
 10
1.83272912
 20
-5.56886283
 10
1.83272114
 20
-5.56886758
 10
1.83271594
 20
-5.56887056
 10
1.83271409
 20
-5.5688716
  0
LWPOLYLINE
  5
5A1
100
AcDbEntity
  8
detail
 62
    16
  6
CONTINUOUS
370
     5
100
AcDbPolyline
 90
       17
 70
     0
 43
0.0
 10
1.83297775
 20
-5.56869761
 10
1.83297556
 20
-5.56870103
 10
1.83296925
 20
-5.5687106
 10
1.8329592
 20
-5.56872527
 10
1.8329458
 20
-5.56874399
 10
1.83292944
 20
-5.56876569
 10
1.83291051
 20
-5.56878933
 10
1.83288938
 20
-5.56881385
 10
1.83286646
 20
-5.5688382
 10
1.83284319
 20
-5.56886055
 10
1.83281978
 20
-5.56888121
 10
1.83279723
 20
-5.56889976
 10
1.83277653
 20
-5.56891583
 10
1.83275868
 20
-5.56892902
 10
1.8327447
 20
-5.56893893
 10
1.83273557
 20
-5.56894516
 10
1.83273231
 20
-5.56894733
  0
LWPOLYLINE
  5
5A2
100
AcDbEntity
  8
detail
 62
    16
  6
CONTINUOUS
370
     5
100
AcDbPolyline
 90
       70
 70
     0
 43
0.0
 10
1.83391081
 20
-5.56779022
 10
1.83394513
 20
-5.56777871
 10
1.83404239
 20
-5.56774766
 10
1.83419404
 20
-5.56770231
 10
1.83428759
 20
-5.5676759
 10
1.83439152
 20
-5.56764787
 10
1.83450477
 20
-5.56761888
 10
1.83462628
 20
-5.56758957
 10
1.83475496
 20
-5.56756061
 10
1.83488975
 20
-5.56753265
 10
1.83502958
 20
-5.56750634
 10
1.83517339
 20
-5.56748232
 10
1.8353201
 20
-5.56746127
 10
1.83539421
 20
-5.56745205
 10
1.83546864
 20
-5.56744382
 10
1.83558881
 20
-5.56743292
 10
1.83570905
 20
-5.56742505
 10
1.83582932
 20
-5.56742019
 10
1.83594955
 20
-5.56741832
 10
1.83606972
 20
-5.56741943
 10
1.83618975
 20
-5.5674235
 10
1.83630962
 20
-5.56743051
 10
1.83642926
 20
-5.56744044
 10
1.83654863
 20
-5.56745328
 10
1.83666768
 20
-5.56746901
 10
1.83678636
 20
-5.5674876
 10
1.83690462
 20
-5.56750905
 10
1.83702241
 20
-5.56753334
 10
1.83713968
 20
-5.56756043
 10
1.83725639
 20
-5.56759033
 10
1.83737248
 20
-5.56762301
 10
1.83747029
 20
-5.56765288
 10
1.83756706
 20
-5.56768459
 10
1.83766276
 20
-5.56771807
 10
1.83775738
 20
-5.56775323
 10
1.8378509
 20
-5.56779
 10
1.83794332
 20
-5.56782832
 10
1.83803461
 20
-5.5678681
 10
1.83812475
 20
-5.56790928
 10
1.83821374
 20
-5.56795178
 10
1.83830155
 20
-5.56799552
 10
1.83838817
 20
-5.56804044
 10
1.83847359
 20
-5.56808645
 10
1.83855778
 20
-5.56813348
 10
1.83864074
 20
-5.56818147
 10
1.83872244
 20
-5.56823033
 10
1.83880288
 20
-5.56828
 10
1.83888203
 20
-5.5683304
 10
1.83895988
 20
-5.56838145
 10
1.83903642
 20
-5.56843308
 10
1.83911162
 20
-5.56848522
 10
1.83918548
 20
-5.56853779
 10
1.83925797
 20
-5.56859072
 10
1.83932909
 20
-5.56864394
 10
1.83939881
 20
-5.56869737
 10
1.839534
 20
-5.56880458
 10
1.83966342
 20
-5.56891174
 10
1.83978695
 20
-5.56901828
 10
1.83990447
 20
-5.56912361
 10
1.84001583
 20
-5.56922712
 10
1.84012093
 20
-5.56932824
 10
1.84021962
 20
-5.56942636
 10
1.84031179
 20
-5.56952091
 10
1.84039732
 20
-5.56961128
 10
1.84047606
 20
-5.5696969
 10
1.84054791
 20
-5.56977716
 10
1.84061273
 20
-5.56985149
 10
1.84072078
 20
-5.56997994
 10
1.8407992
 20
-5.57007755
 10
1.84086315
 20
-5.5701613
  0
LWPOLYLINE
  5
5A3
100
AcDbEntity
  8
detail
 62
    16
  6
CONTINUOUS
370
     5
100
AcDbPolyline
 90
       86
 70
     0
 43
0.0
 10
1.83385221
 20
-5.56774002
 10
1.83389009
 20
-5.56772529
 10
1.83399752
 20
-5.56768586
 10
1.83407441
 20
-5.56765913
 10
1.83416519
 20
-5.56762891
 10
1.83426869
 20
-5.5675961
 10
1.83438375
 20
-5.56756159
 10
1.83450921
 20
-5.56752628
 10
1.8346439
 20
-5.56749106
 10
1.83478666
 20
-5.56745683
 10
1.83493632
 20
-5.56742449
 10
1.83501337
 20
-5.5674093
 10
1.83509171
 20
-5.56739492
 10
1.83517119
 20
-5.56738146
 10
1.83525167
 20
-5.56736902
 10
1.835333
 20
-5.56735773
 10
1.83541503
 20
-5.5673477
 10
1.83549763
 20
-5.56733903
 10
1.83558063
 20
-5.56733183
 10
1.83565445
 20
-5.56732671
 10
1.83572828
 20
-5.56732272
 10
1.8358021
 20
-5.56731985
 10
1.8358759
 20
-5.56731812
 10
1.83594967
 20
-5.56731751
 10
1.83602341
 20
-5.56731802
 10
1.83609708
 20
-5.56731964
 10
1.8361707
 20
-5.56732238
 10
1.83624424
 20
-5.56732623
 10
1.83631769
 20
-5.56733118
 10
1.83639104
 20
-5.56733724
 10
1.83646428
 20
-5.56734439
 10
1.8365374
 20
-5.56735264
 10
1.83661038
 20
-5.56736198
 10
1.83668322
 20
-5.56737241
 10
1.8367559
 20
-5.56738392
 10
1.83682841
 20
-5.56739651
 10
1.83690073
 20
-5.56741018
 10
1.83697287
 20
-5.56742492
 10
1.83704479
 20
-5.56744073
 10
1.8371165
 20
-5.56745761
 10
1.83718799
 20
-5.56747555
 10
1.83725923
 20
-5.56749455
 10
1.83733022
 20
-5.5675146
 10
1.83740094
 20
-5.56753571
 10
1.83747139
 20
-5.56755786
 10
1.83754155
 20
-5.56758106
 10
1.83761141
 20
-5.5676053
 10
1.83768097
 20
-5.56763058
 10
1.8377502
 20
-5.56765689
 10
1.83781909
 20
-5.56768423
 10
1.83788764
 20
-5.5677126
 10
1.83797662
 20
-5.56775108
 10
1.83806467
 20
-5.56779089
 10
1.83815177
 20
-5.56783198
 10
1.8382379
 20
-5.56787429
 10
1.83832305
 20
-5.56791775
 10
1.83840721
 20
-5.5679623
 10
1.83849035
 20
-5.56800787
 10
1.83857247
 20
-5.56805442
 10
1.83865354
 20
-5.56810187
 10
1.83873356
 20
-5.56815016
 10
1.83881251
 20
-5.56819923
 10
1.83889037
 20
-5.56824901
 10
1.83896714
 20
-5.56829945
 10
1.83904279
 20
-5.56835049
 10
1.83911731
 20
-5.56840205
 10
1.83919068
 20
-5.56845408
 10
1.83933393
 20
-5.5685593
 10
1.83947243
 20
-5.56866565
 10
1.83960604
 20
-5.56877262
 10
1.83973467
 20
-5.56887972
 10
1.83985817
 20
-5.56898645
 10
1.83997645
 20
-5.56909231
 10
1.84008937
 20
-5.56919681
 10
1.84019682
 20
-5.56929945
 10
1.84029868
 20
-5.56939972
 10
1.84039482
 20
-5.56949713
 10
1.84048514
 20
-5.56959119
 10
1.84056952
 20
-5.56968139
 10
1.84064782
 20
-5.56976724
 10
1.84071995
 20
-5.56984823
 10
1.84078576
 20
-5.56992388
 10
1.84084516
 20
-5.56999367
 10
1.8409442
 20
-5.57011373
 10
1.84101612
 20
-5.57020442
 10
1.8410748
 20
-5.57028175
  0
LWPOLYLINE
  5
5A4
100
AcDbEntity
  8
detail
 62
    16
  6
CONTINUOUS
370
     5
100
AcDbPolyline
 90
       17
 70
     0
 43
0.0
 10
1.83239324
 20
-5.56857041
 10
1.83239142
 20
-5.56857273
 10
1.8323866
 20
-5.56857885
 10
1.83237979
 20
-5.5685875
 10
1.83237199
 20
-5.56859742
 10
1.83236419
 20
-5.56860734
 10
1.83235738
 20
-5.56861599
 10
1.83235256
 20
-5.5686221
 10
1.83235074
 20
-5.56862443
 10
1.83234969
 20
-5.56862675
 10
1.83234693
 20
-5.56863286
 10
1.83234303
 20
-5.56864151
 10
1.83233857
 20
-5.56865142
 10
1.8323341
 20
-5.56866133
 10
1.8323302
 20
-5.56866997
 10
1.83232744
 20
-5.56867609
 10
1.83232639
 20
-5.56867841
  0
LWPOLYLINE
  5
5A5
100
AcDbEntity
  8
detail
 62
    16
  6
CONTINUOUS
370
     5
100
AcDbPolyline
 90
       19
 70
     0
 43
0.0
 10
1.83239324
 20
-5.56857041
 10
1.83240103
 20
-5.56856117
 10
1.83242344
 20
-5.56853556
 10
1.83245907
 20
-5.56849675
 10
1.83250648
 20
-5.56844792
 10
1.83256427
 20
-5.56839221
 10
1.83263101
 20
-5.56833282
 10
1.8326673
 20
-5.56830273
 10
1.8327053
 20
-5.5682729
 10
1.83274482
 20
-5.56824374
 10
1.8327857
 20
-5.56821563
 10
1.83279756
 20
-5.56820788
 10
1.83280951
 20
-5.56820025
 10
1.83282154
 20
-5.56819274
 10
1.83283367
 20
-5.56818535
 10
1.83284588
 20
-5.56817809
 10
1.83285816
 20
-5.56817096
 10
1.83287052
 20
-5.56816397
 10
1.83288296
 20
-5.56815711
  0
LWPOLYLINE
  5
5A6
100
AcDbEntity
  8
detail
 62
    16
  6
CONTINUOUS
370
     5
100
AcDbPolyline
 90
       17
 70
     0
 43
0.0
 10
1.83281279
 20
-5.56829718
 10
1.83281449
 20
-5.56829601
 10
1.83281932
 20
-5.56829273
 10
1.83282687
 20
-5.5682877
 10
1.83283671
 20
-5.56828128
 10
1.83284845
 20
-5.56827383
 10
1.83286165
 20
-5.5682657
 10
1.83287592
 20
-5.56825726
 10
1.83289084
 20
-5.56824886
 10
1.832899
 20
-5.56824447
 10
1.83290695
 20
-5.5682403
 10
1.83291442
 20
-5.56823648
 10
1.83292114
 20
-5.56823311
 10
1.83292684
 20
-5.5682303
 10
1.83293125
 20
-5.56822815
 10
1.83293409
 20
-5.56822678
 10
1.8329351
 20
-5.5682263
  0
LWPOLYLINE
  5
5A7
100
AcDbEntity
  8
detail
 62
    16
  6
CONTINUOUS
370
     5
100
AcDbPolyline
 90
       17
 70
     0
 43
0.0
 10
1.83355228
 20
-5.56789624
 10
1.83354564
 20
-5.56789894
 10
1.83352814
 20
-5.56790605
 10
1.83350338
 20
-5.56791609
 10
1.83347501
 20
-5.56792761
 10
1.83344663
 20
-5.56793913
 10
1.83342188
 20
-5.56794918
 10
1.83340437
 20
-5.56795628
 10
1.83339773
 20
-5.56795898
 10
1.83338919
 20
-5.56795974
 10
1.83336669
 20
-5.56796174
 10
1.83333489
 20
-5.56796456
 10
1.83329842
 20
-5.5679678
 10
1.83326196
 20
-5.56797105
 10
1.83323015
 20
-5.56797387
 10
1.83320765
 20
-5.56797587
 10
1.83319912
 20
-5.56797663
  0
LWPOLYLINE
  5
5A8
100
AcDbEntity
  8
detail
 62
    16
  6
CONTINUOUS
370
     5
100
AcDbPolyline
 90
       17
 70
     0
 43
0.0
 10
1.83353712
 20
-5.5680109
 10
1.83353037
 20
-5.56801333
 10
1.83351259
 20
-5.56801973
 10
1.83348746
 20
-5.56802877
 10
1.83345864
 20
-5.56803914
 10
1.83342983
 20
-5.56804951
 10
1.83340469
 20
-5.56805856
 10
1.83338691
 20
-5.56806496
 10
1.83338017
 20
-5.56806739
 10
1.83337161
 20
-5.5680678
 10
1.83334905
 20
-5.5680689
 10
1.83331715
 20
-5.56807044
 10
1.83328059
 20
-5.56807222
 10
1.83324402
 20
-5.56807399
 10
1.83321213
 20
-5.56807554
 10
1.83318957
 20
-5.56807664
 10
1.83318101
 20
-5.56807705
  0
LWPOLYLINE
  5
5A9
100
AcDbEntity
  8
detail
 62
    16
  6
CONTINUOUS
370
     5
100
AcDbPolyline
 90
       17
 70
     0
 43
0.0
 10
1.83355228
 20
-5.56789624
 10
1.83355926
 20
-5.56789284
 10
1.83357766
 20
-5.56788388
 10
1.83360367
 20
-5.56787121
 10
1.83363348
 20
-5.56785668
 10
1.8336633
 20
-5.56784215
 10
1.83368931
 20
-5.56782948
 10
1.8337077
 20
-5.56782051
 10
1.83371468
 20
-5.56781711
 10
1.83372059
 20
-5.5678138
 10
1.83373617
 20
-5.56780507
 10
1.8337582
 20
-5.56779272
 10
1.83378345
 20
-5.56777857
 10
1.83380869
 20
-5.56776441
 10
1.83383072
 20
-5.56775206
 10
1.8338463
 20
-5.56774333
 10
1.83385221
 20
-5.56774002
  0
LWPOLYLINE
  5
5AA
100
AcDbEntity
  8
detail
 62
    16
  6
CONTINUOUS
370
     5
100
AcDbPolyline
 90
       25
 70
     0
 43
0.0
 10
1.83391081
 20
-5.56779022
 10
1.83390305
 20
-5.56779538
 10
1.83388258
 20
-5.567809
 10
1.83385364
 20
-5.56782824
 10
1.83382046
 20
-5.5678503
 10
1.83378729
 20
-5.56787236
 10
1.83375835
 20
-5.5678916
 10
1.83373788
 20
-5.56790522
 10
1.83373011
 20
-5.56791038
 10
1.83372671
 20
-5.56791218
 10
1.83371772
 20
-5.56791692
 10
1.83370502
 20
-5.56792363
 10
1.83369046
 20
-5.56793131
 10
1.8336759
 20
-5.567939
 10
1.8336632
 20
-5.56794571
 10
1.83365421
 20
-5.56795045
 10
1.8336508
 20
-5.56795225
 10
1.8336503
 20
-5.56795377
 10
1.83364897
 20
-5.56795778
 10
1.8336471
 20
-5.56796345
 10
1.83364495
 20
-5.56796995
 10
1.8336428
 20
-5.56797646
 10
1.83364093
 20
-5.56798213
 10
1.83363961
 20
-5.56798614
 10
1.8336391
 20
-5.56798766
  0
LINE
  5
5AB
100
AcDbEntity
  8
detail
 62
    16
  6
CONTINUOUS
370
     5
100
AcDbLine
 10
1.83971506
 20
-5.56921244
 30
0.0
 11
1.84033278
 21
-5.5685579
 31
0.0
  0
LINE
  5
5AC
100
AcDbEntity
  8
detail
 62
    16
  6
CONTINUOUS
370
     5
100
AcDbLine
 10
1.8331264
 20
-5.58313295
 30
0.0
 11
1.8331264
 21
-5.67445734
 31
0.0
  0
LINE
  5
5AD
100
AcDbEntity
  8
detail
 62
    16
  6
CONTINUOUS
370
     5
100
AcDbLine
 10
1.8334264
 20
-5.58489618
 30
0.0
 11
1.8334264
 21
-5.67445734
 31
0.0
  0
LINE
  5
5AE
100
AcDbEntity
  8
detail
 62
    16
  6
CONTINUOUS
370
     5
100
AcDbLine
 10
1.83139435
 20
-5.58311227
 30
0.0
 11
1.83139435
 21
-5.67445734
 31
0.0
  0
LINE
  5
5AF
100
AcDbEntity
  8
detail
 62
    16
  6
CONTINUOUS
370
     5
100
AcDbLine
 10
1.83167878
 20
-5.58311227
 30
0.0
 11
1.83167878
 21
-5.67445734
 31
0.0
  0
LINE
  5
5B0
100
AcDbEntity
  8
detail
 62
    16
  6
CONTINUOUS
370
     5
100
AcDbLine
 10
1.8403264
 20
-5.56323166
 30
0.25
 11
1.8493264
 21
-5.56323166
 31
0.25
  0
LINE
  5
5B1
100
AcDbEntity
  8
detail
 62
    16
  6
CONTINUOUS
370
     5
100
AcDbLine
 10
1.83098887
 20
-5.56323166
 30
0.0
 11
1.83131701
 21
-5.56328428
 31
0.0
  0
LINE
  5
5B2
100
AcDbEntity
  8
detail
 62
    16
  6
CONTINUOUS
370
     5
100
AcDbLine
 10
1.83076831
 20
-5.56348025
 30
0.0
 11
1.83076831
 21
-5.58923166
 31
0.0
  0
LINE
  5
5B3
100
AcDbEntity
  8
detail
 62
    16
  6
CONTINUOUS
370
     5
100
AcDbLine
 10
1.83131283
 20
-5.56369837
 30
0.0
 11
1.83227464
 21
-5.56467789
 31
0.0
  0
LINE
  5
5B4
100
AcDbEntity
  8
detail
 62
    16
  6
CONTINUOUS
370
     5
100
AcDbLine
 10
1.83131701
 20
-5.56328428
 30
0.0
 11
1.83248371
 21
-5.56447209
 31
0.0
  0
LINE
  5
5B5
100
AcDbEntity
  8
detail
 62
    16
  6
CONTINUOUS
370
     5
100
AcDbLine
 10
1.83227464
 20
-5.56467789
 30
0.0
 11
1.83248371
 21
-5.56447209
 31
0.0
  0
LINE
  5
5B6
100
AcDbEntity
  8
detail
 62
    16
  6
CONTINUOUS
370
     5
100
AcDbLine
 10
1.83104923
 20
-5.58923166
 30
0.0
 11
1.83104923
 21
-5.56379251
 31
0.0
  0
ARC
  5
5B7
100
AcDbEntity
  8
detail
 62
    16
  6
CONTINUOUS
370
     5
100
AcDbCircle
 10
1.83110501
 20
-5.56355684
 30
0.0
 40
0.0003453
100
AcDbArc
 50
52.122858
 51
167.184791
  0
ARC
  5
5B8
100
AcDbEntity
  8
detail
 62
    16
  6
CONTINUOUS
370
     5
100
AcDbCircle
 10
1.83121253
 20
-5.56380937
 30
0.0
 40
0.00016417
100
AcDbArc
 50
47.899533
 51
174.105762
  0
LWPOLYLINE
  5
5B9
100
AcDbEntity
  8
detail
 62
    16
  6
CONTINUOUS
370
     5
100
AcDbPolyline
 90
        3
 70
     0
 43
0.0
 10
1.83104923
 20
-5.58923166
 10
1.82982729
 20
-5.58923166
 10
1.83076831
 20
-5.58438554
  0
LWPOLYLINE
  5
5BA
100
AcDbEntity
  8
detail
 62
     4
  6
CONTINUOUS
370
     5
100
AcDbPolyline
 90
        3
 70
     0
 43
0.0
 10
1.80941251
 20
-5.5585604
 10
1.82372532
 20
-5.5585604
 10
1.83076831
 20
-5.5696772
  0
CIRCLE
  5
5BB
100
AcDbEntity
  8
detail
 62
     4
  6
CONTINUOUS
370
     9
100
AcDbCircle
 10
1.83062873
 20
-5.56956179
 30
0.0
 40
0.00039661
  0
TEXT
  5
5BC
100
AcDbEntity
  8
detail
 62
    16
370
     5
100
AcDbText
 10
1.98539143
 20
-5.49173754
 30
0.0
 40
0.0036
  1

  7
ARIAL
 50
0.0
 41
0.89
 51
0.0
100
AcDbText
  0
TEXT
  5
5BD
100
AcDbEntity
  8
detail
 62
     7
370
    18
100
AcDbText
 10
1.8928099
 20
-5.66661662
 30
0.0
 40
0.0025
  1
Massangabe in mm
  7
FRUTIGER_55_ROMAN
 50
0.0
 41
0.89
 51
0.0
100
AcDbText
  0
TEXT
  5
5BE
100
AcDbEntity
  8
detail
 62
     7
370
    18
100
AcDbText
 10
1.79551905
 20
-5.62481941
 30
0.0
 40
0.0016
  1
Führungsschiene mit
  7
FRUTIGER_55_ROMAN
 50
0.0
 41
0.89
 51
0.0
100
AcDbText
  0
TEXT
  5
5BF
100
AcDbEntity
  8
detail
 62
     7
370
    18
100
AcDbText
 10
1.79551905
 20
-5.62775127
 30
0.0
 40
0.0016
  1
Bohrungen
  7
FRUTIGER_55_ROMAN
 50
0.0
 41
0.89
 51
0.0
100
AcDbText
  0
TEXT
  5
5C0
100
AcDbEntity
  8
detail
 62
     7
370
    18
100
AcDbText
 10
1.87851324
 20
-5.63048489
 30
0.0
 40
0.0016
  1
Führungsschiene für Insektenschutznetz
  7
FRUTIGER_55_ROMAN
 50
0.0
 41
0.89
 51
0.0
100
AcDbText
  0
TEXT
  5
5C1
100
AcDbEntity
  8
detail
 62
     7
370
    18
100
AcDbText
 10
1.87851324
 20
-5.60003416
 30
0.0
 40
0.0016
  1
Untersichtsblende (Revisionsblech)
  7
FRUTIGER_55_ROMAN
 50
0.0
 41
0.89
 51
0.0
100
AcDbText
  0
TEXT
  5
5C2
100
AcDbEntity
  8
detail
 62
     7
370
    18
100
AcDbText
 10
1.87851324
 20
-5.60318096
 30
0.0
 40
0.0016
  1
seitlich in Lagerplatte gehalten
  7
FRUTIGER_55_ROMAN
 50
0.0
 41
0.89
 51
0.0
100
AcDbText
  0
TEXT
  5
5C3
100
AcDbEntity
  8
detail
 62
     7
370
    18
100
AcDbText
 10
1.79551905
 20
-5.59619353
 30
0.0
 40
0.0016
  1
Rollladen ECOMONT 16+
  7
FRUTIGER_55_ROMAN
 50
0.0
 41
0.89
 51
0.0
100
AcDbText
  0
TEXT
  5
5C4
100
AcDbEntity
  8
detail
 62
     7
370
    18
100
AcDbText
 10
1.79551905
 20
-5.5992896
 30
0.0
 40
0.0016
  1
mit Lagerkonsole
  7
FRUTIGER_55_ROMAN
 50
0.0
 41
0.89
 51
0.0
100
AcDbText
  0
TEXT
  5
5C5
100
AcDbEntity
  8
detail
 62
     7
370
    18
100
AcDbText
 10
1.79551905
 20
-5.64513465
 30
0.0
 40
0.0016
  1
Isol. Leibungselement
  7
FRUTIGER_55_ROMAN
 50
0.0
 41
0.89
 51
0.0
100
AcDbText
  0
TEXT
  5
5C6
100
AcDbEntity
  8
detail
 62
     7
370
    18
100
AcDbText
 10
1.79551905
 20
-5.6480665
 30
0.0
 40
0.0016
  1
Führungsschiene kann
  7
FRUTIGER_55_ROMAN
 50
0.0
 41
0.89
 51
0.0
100
AcDbText
  0
TEXT
  5
5C7
100
AcDbEntity
  8
detail
 62
     7
370
    18
100
AcDbText
 10
1.79551905
 20
-5.65099031
 30
0.0
 40
0.0016
  1
variabel befestigt werden
  7
FRUTIGER_55_ROMAN
 50
0.0
 41
0.89
 51
0.0
100
AcDbText
  0
TEXT
  5
5C8
100
AcDbEntity
  8
detail
 62
     7
370
    18
100
AcDbText
 10
1.87851324
 20
-5.56968878
 30
0.0
 40
0.0016
  1
Variante Aufdoppelung auf Rahmenverbreiterung
  7
FRUTIGER_55_ROMAN
 50
0.0
 41
0.89
 51
0.0
100
AcDbText
  0
TEXT
  5
5C9
100
AcDbEntity
  8
detail
 62
     7
370
    18
100
AcDbText
 10
1.87851324
 20
-5.57283558
 30
0.0
 40
0.0016
  1
mit Rav-Isol. Element
  7
FRUTIGER_55_ROMAN
 50
0.0
 41
0.89
 51
0.0
100
AcDbText
  0
TEXT
  5
5CA
100
AcDbEntity
  8
detail
 62
     7
370
    18
100
AcDbText
 10
1.79551905
 20
-5.54794979
 30
0.0
 40
0.0016
  1
Polystyrol EPS
  7
FRUTIGER_55_ROMAN
 50
0.0
 41
0.89
 51
0.0
100
AcDbText
  0
TEXT
  5
5CB
100
AcDbEntity
  8
detail
 62
   160
370
    18
100
AcDbText
 10
1.80882883
 20
-5.56674334
 30
0.0
 40
0.0012
  1
Systemhöhe
  7
FRUTIGER_55_ROMAN
 50
0.0
 41
0.94
 51
0.0
100
AcDbText
  0
TEXT
  5
5CC
100
AcDbEntity
  8
detail
 62
   160
370
    18
100
AcDbText
 10
1.80882883
 20
-5.57500368
 30
0.0
 40
0.0012
  1
Wellenhöhe
  7
FRUTIGER_55_ROMAN
 50
0.0
 41
0.94
 51
0.0
100
AcDbText
  0
TEXT
  5
5CD
100
AcDbEntity
  8
detail
 62
   160
370
    18
100
AcDbText
 10
1.80882883
 20
-5.58537893
 30
0.0
 40
0.0012
  1
Führungshöhe
  7
FRUTIGER_55_ROMAN
 50
0.0
 41
0.94
 51
0.0
100
AcDbText
  0
TEXT
  5
5CE
100
AcDbEntity
  8
detail
 62
   160
370
    18
100
AcDbText
 10
1.83556741
 20
-5.61583417
 30
0.0
 40
0.0016
  1
Sturz Breite
  7
FRUTIGER_55_ROMAN
 50
0.0
 41
0.94
 51
0.0
100
AcDbText
  0
TEXT
  5
5CF
100
AcDbEntity
  8
detail
 62
   160
370
    18
100
AcDbText
 10
1.87284159
 20
-5.58142807
 30
0.0
 40
0.0016
  1
Sturz Höhe
  7
FRUTIGER_55_ROMAN
 50
89.9999975
 41
0.94
 51
0.0
100
AcDbText
  0
TEXT
  5
5D0
100
AcDbEntity
  8
detail
 62
     7
370
    18
100
AcDbText
 10
1.87851324
 20
-5.60510096
 30
0.0
 40
0.0016
  1

  7
FRUTIGER_55_ROMAN
 50
0.0
 41
0.89
 51
0.0
100
AcDbText
  0
TEXT
  5
5D1
100
AcDbEntity
  8
detail
 62
     7
370
    18
100
AcDbText
 10
1.79551905
 20
-5.55705929
 30
0.0
 40
0.0016
  1
Frontblende Alu
  7
FRUTIGER_55_ROMAN
 50
0.0
 41
0.89
 51
0.0
100
AcDbText
  0
TEXT
  5
5D2
100
AcDbEntity
  8
detail
 62
     7
370
    18
100
AcDbText
 10
1.79551905
 20
-5.5595732
 30
0.0
 40
0.0016
  1
Rufalex
  7
FRUTIGER_55_ROMAN
 50
0.0
 41
0.89
 51
0.0
100
AcDbText
  0
TEXT
  5
5D3
100
AcDbEntity
  8
detail
 62
   160
370
    18
100
AcDbText
 10
1.83441344
 20
-5.65954225
 30
0.0
 40
0.0016
  1
Führungsschiene
  7
FRUTIGER_55_ROMAN
 50
0.0
 41
0.94
 51
0.0
100
AcDbText
  0
INSERT
  5
5D4
100
AcDbEntity
  8
detail
 62
     0
370
    -3
100
AcDbBlockReference
  2
*D1
 10
0.0
 20
0.0
 30
0.0
  0
INSERT
  5
5D5
100
AcDbEntity
  8
detail
 62
     0
370
    -3
100
AcDbBlockReference
  2
*D2
 10
0.0
 20
0.0
 30
0.0
  0
INSERT
  5
5D6
100
AcDbEntity
  8
detail
 62
     0
370
     9
100
AcDbBlockReference
  2
*D3
 10
0.0
 20
0.0
 30
0.0
  0
INSERT
  5
5D7
100
AcDbEntity
  8
detail
 62
     0
370
    -3
100
AcDbBlockReference
  2
*D4
 10
0.0
 20
0.0
 30
0.0
  0
INSERT
  5
5D8
100
AcDbEntity
  8
detail
 62
     0
370
    -3
100
AcDbBlockReference
  2
*D5
 10
0.0
 20
0.0
 30
0.0
  0
INSERT
  5
5D9
100
AcDbEntity
  8
detail
 62
     0
370
    -3
100
AcDbBlockReference
  2
*D6
 10
0.0
 20
0.0
 30
0.0
  0
INSERT
  5
5DA
100
AcDbEntity
  8
detail
 62
     0
370
    -3
100
AcDbBlockReference
  2
*D7
 10
0.0
 20
0.0
 30
0.0
  0
INSERT
  5
5DB
100
AcDbEntity
  8
detail
 62
     0
370
    -3
100
AcDbBlockReference
  2
*D8
 10
0.0
 20
0.0
 30
0.0
  0
INSERT
  5
5DC
100
AcDbEntity
  8
detail
 62
     0
370
    -3
100
AcDbBlockReference
  2
*D9
 10
0.0
 20
0.0
 30
0.0
  0
INSERT
  5
5DD
100
AcDbEntity
  8
detail
 62
     0
370
    -3
100
AcDbBlockReference
  2
*D10
 10
0.0
 20
0.0
 30
0.0
  0
ENDSEC
  0
SECTION
  2
OBJECTS
  0
DICTIONARY
  5
1
100
AcDbDictionary
  3
ACAD_GROUP
350
2
  3
ACAD_MLINESTYLE
350
3
  0
DICTIONARY
  5
2
102
{CDWK_REACTORS
330
1
102
}
100
AcDbDictionary
  0
DICTIONARY
  5
3
102
{CDWK_REACTORS
330
1
102
}
100
AcDbDictionary
  3
STANDARD
350
4
  0
MLINESTYLE
  5
4
102
{CDWK_REACTORS
330
3
102
}
100
AcDbMlineStyle
  2
STANDARD
 70
     0
  3

 62
     0
 51
90.0
 52
90.0
 71
     2
 49
0.5
 62
   256
  6
BYLAYER
 49
-0.5
 62
   256
  6
BYLAYER
  0
ENDSEC
  0
EOF
