  0
SECTION
  2
HEADER
  9
$ACADVER
  1
AC1014
  9
$DWGCODEPAGE
  3
ANSI_1252
  9
$INSBASE
 10
0.0
 20
0.0
 30
0.0
  9
$EXTMIN
 10
1.74954005
 20
-5.72483906
  9
$EXTMAX
 10
1.99401839
 20
-5.42783906
  9
$LIMMIN
 10
1.74954005
 20
-5.72483906
  9
$LIMMAX
 10
1.99401839
 20
-5.42783906
  9
$ORTHOMODE
 70
     0
  9
$REGENMODE
 70
     1
  9
$FILLMODE
 70
     1
  9
$QTEXTMODE
 70
     0
  9
$MIRRTEXT
 70
     1
  9
$DRAGMODE
 70
     2
  9
$LTSCALE
 40
0.001
  9
$OSMODE
 70
     0
  9
$ATTMODE
 70
     1
  9
$TEXTSIZE
 40
3.5
  9
$TRACEWID
 40
1.0
  9
$TEXTSTYLE
  7
STANDARD
  9
$CLAYER
  8
0
  9
$CELTYPE
  6
BYLAYER
  9
$CECOLOR
 62
   256
  9
$DIMSCALE
 40
1.0
  9
$DIMASZ
 40
4.0
  9
$DIMEXO
 40
5.0
  9
$DIMDLI
 40
10.0
  9
$DIMRND
 40
0.0
  9
$DIMDLE
 40
2.0
  9
$DIMEXE
 40
2.0
  9
$DIMTP
 40
0.0
  9
$DIMTM
 40
0.0
  9
$DIMTXT
 40
1.6
  9
$DIMCEN
 40
1.5
  9
$DIMTSZ
 40
0.0
  9
$DIMTOL
 70
     0
  9
$DIMLIM
 70
     0
  9
$DIMTIH
 70
     1
  9
$DIMTOH
 70
     0
  9
$DIMSE1
 70
     0
  9
$DIMSE2
 70
     0
  9
$DIMTAD
 70
     1
  9
$DIMZIN
 70
     8
  9
$DIMBLK
  1

  9
$DIMASO
 70
     1
  9
$DIMSHO
 70
     1
  9
$DIMPOST
  1

  9
$DIMAPOST
  1

  9
$DIMALT
 70
     0
  9
$DIMALTD
 70
     2
  9
$DIMALTF
 40
25.4
  9
$DIMLFAC
 40
1.0
  9
$DIMTOFL
 70
     0
  9
$DIMTVP
 40
0.0
  9
$DIMTIX
 70
     0
  9
$DIMSOXD
 70
     0
  9
$DIMSAH
 70
     0
  9
$DIMBLK1
  1

  9
$DIMBLK2
  1

  9
$DIMSTYLE
  2
*UNNAMED
  9
$DIMCLRD
 70
     9
  9
$DIMCLRE
 70
     9
  9
$DIMCLRT
 70
     4
  9
$DIMTFAC
 40
1.0
  9
$DIMGAP
 40
0.09
  9
$DIMUNIT
 70
     2
  9
$LUNITS
 70
     2
  9
$LUPREC
 70
     6
  9
$AXISMODE
 70
     0
  9
$AXISUNIT
 10
0.0
 20
0.0
  9
$SKETCHINC
 40
0.1
  9
$FILLETRAD
 40
0.0
  9
$AUNITS
 70
     0
  9
$AUPREC
 70
     0
  9
$MENU
  1
ACAD
  9
$ELEVATION
 40
0.0
  9
$PELEVATION
 40
0.0
  9
$THICKNESS
 40
0.0
  9
$LIMCHECK
 70
     0
  9
$BLIPMODE
 70
     1
  9
$CHAMFERA
 40
0.0
  9
$CHAMFERB
 40
0.0
  9
$SKPOLY
 70
     1
  9
$TDCREATE
 40
2456705.0000000000
  9
$TDUPDATE
 40
2456705.0000000000
  9
$TDINDWG
 40
0.0
  9
$TDUSRTIMER
 40
0.0
  9
$USRTIMER
 70
     1
  9
$ANGBASE
 50
0.0
  9
$ANGDIR
 70
     0
  9
$PDMODE
 70
     0
  9
$PDSIZE
 40
0.0
  9
$PLINEWID
 40
0.0
  9
$COORDS
 70
     2
  9
$SPLFRAME
 70
     0
  9
$SPLINETYPE
 70
     6
  9
$SPLINESEGS
 70
     8
  9
$ATTDIA
 70
     1
  9
$ATTREQ
 70
     1
  9
$HANDLING
 70
     1
  9
$HANDSEED
  5
     518
  9
$SURFTAB1
 70
     6
  9
$SURFTAB2
 70
     6
  9
$SURFTYPE
 70
     6
  9
$SURFU
 70
     6
  9
$SURFV
 70
     6
  9
$UCSNAME
  2

  9
$UCSORG
 10
0.0
 20
0.0
 30
0.0
  9
$UCSXDIR
 10
1.0
 20
0.0
 30
0.0
  9
$UCSYDIR
 10
0.0
 20
1.0
 30
0.0
  9
$PUCSNAME
  2

  9
$PUCSORG
 10
0.0
 20
0.0
 30
0.0
  9
$PUCSXDIR
 10
1.0
 20
0.0
 30
0.0
  9
$PUCSYDIR
 10
0.0
 20
1.0
 30
0.0
  9
$USERI1
 70
     0
  9
$USERI2
 70
     0
  9
$USERI3
 70
     0
  9
$USERI4
 70
     0
  9
$USERI5
 70
     0
  9
$USERR1
 40
0.0
  9
$USERR2
 40
0.0
  9
$USERR3
 40
0.0
  9
$USERR4
 40
0.0
  9
$USERR5
 40
0.0
  9
$WORLDVIEW
 70
     1
  9
$SHADEDGE
 70
     3
  9
$SHADEDIF
 70
    70
  9
$TILEMODE
 70
     1
  9
$MAXACTVP
 70
    16
  9
$PINSBASE
 10
0.0
 20
0.0
 30
0.0
  9
$PLIMCHECK
 70
     0
  9
$PEXTMIN
 10
1.0000000000000E+20
 20
1.0000000000000E+20
 30
1.0000000000000E+20
  9
$PEXTMAX
 10
-1.0000000000000E+20
 20
-1.0000000000000E+20
 30
-1.0000000000000E+20
  9
$PLIMMIN
 10
0.0
 20
0.0
  9
$UNITMODE
 70
     0
  9
$VISRETAIN
 70
     0
  9
$MEASUREMENT
 70
     1
  0
ENDSEC
  0
SECTION
  2
TABLES
  0
TABLE
  2
VPORT
  5
36
100
AcDbSymbolTable
 70
     1
  0
ENDTAB
  0
TABLE
  2
STYLE
  5
37
100
AcDbSymbolTable
 70
     4
  0
STYLE
  5
38
100
AcDbSymbolTableRecord
100
AcDbTextStyleTableRecord
  2
STANDARD
 70
     0
 40
0.0
 41
1.0
 50
0.0
 71
     0
 42
3.5
  3
MONOTXT
  4

  0
STYLE
  5
39
100
AcDbSymbolTableRecord
100
AcDbTextStyleTableRecord
  2
CADWORK1
 70
     0
 40
0.0
 41
1.0
 50
0.0
 71
     0
 42
3.5
  3
MONOTXT
  4

  0
STYLE
  5
3A
100
AcDbSymbolTableRecord
100
AcDbTextStyleTableRecord
  2
MONOTXT
 70
     0
 40
0.0
 41
1.0
 50
0.0
 71
     0
 42
3.5
  3
MONOTXT
  4

  0
STYLE
  5
3B
100
AcDbSymbolTableRecord
100
AcDbTextStyleTableRecord
  2
FRUTIGER_55_ROMAN
 70
     0
 40
0.0
 41
1.0
 50
0.0
 71
     0
 42
3.5
  3

  4

1001
ACAD
1000
Frutiger 55 Roman
1071
        0
  0
STYLE
  5
3C
100
AcDbSymbolTableRecord
100
AcDbTextStyleTableRecord
  2
ARIAL
 70
     0
 40
0.0
 41
1.0
 50
0.0
 71
     0
 42
3.5
  3

  4

1001
ACAD
1000
Arial
1071
        0
  0
ENDTAB
  0
TABLE
  2
LTYPE
  5
3D
100
AcDbSymbolTable
 70
    14
  0
LTYPE
  5
3E
100
AcDbSymbolTableRecord
100
AcDbLinetypeTableRecord
  2
BYBLOCK
 70
    64
  3

 72
    65
 73
     0
 40
0.0
  0
LTYPE
  5
3F
100
AcDbSymbolTableRecord
100
AcDbLinetypeTableRecord
  2
BYLAYER
 70
    64
  3

 72
    65
 73
     0
 40
0.0
  0
LTYPE
  5
40
100
AcDbSymbolTableRecord
100
AcDbLinetypeTableRecord
  2
CONTINUOUS
 70
    64
  3
Solid line
 72
    65
 73
     0
 40
0.0
  0
LTYPE
  5
41
100
AcDbSymbolTableRecord
100
AcDbLinetypeTableRecord
  2
HIDDEN
 70
    64
  3
__ __ __ __ __ __ __ __ __ __ __ __ __ __ __ __
 72
    65
 73
     2
 40
1.875
 49
1.25
 74
     0
 49
-0.625
 74
     0
  0
LTYPE
  5
42
100
AcDbSymbolTableRecord
100
AcDbLinetypeTableRecord
  2
DASHDOT
 70
    64
  3
 __ . __ . __ . __ . __ . __ . __ . __ . __ . __
 72
    65
 73
     4
 40
10.0
 49
5.0
 74
     0
 49
-2.5
 74
     0
 49
0.0
 74
     0
 49
-2.5
 74
     0
  0
LTYPE
  5
43
100
AcDbSymbolTableRecord
100
AcDbLinetypeTableRecord
  2
CENTER
 70
    64
  3
 ____ _ ____ _ ____ _ ____ _ ____ _ ____ _ ____
 72
    65
 73
     4
 40
20.0
 49
12.5
 74
     0
 49
-2.5
 74
     0
 49
2.5
 74
     0
 49
-2.5
 74
     0
  0
LTYPE
  5
44
100
AcDbSymbolTableRecord
100
AcDbLinetypeTableRecord
  2
CADWORK_LK1
 70
    64
  3
User defined cadwork LK1
 72
    65
 73
     2
 40
1.25
 49
0.5
 74
     0
 49
-0.75
 74
     0
  0
LTYPE
  5
45
100
AcDbSymbolTableRecord
100
AcDbLinetypeTableRecord
  2
CADWORK_AC4
 70
    64
  3
User defined cadwork AC4
 72
    65
 73
     2
 40
10.0
 49
50.0
 74
     0
 49
40.0
 74
     0
  0
LTYPE
  5
46
100
AcDbSymbolTableRecord
100
AcDbLinetypeTableRecord
  2
DAL
 70
    64
  3
Solid line (for MAPS)
 72
    65
 73
     0
 40
0.0
  0
LTYPE
  5
47
100
AcDbSymbolTableRecord
100
AcDbLinetypeTableRecord
  2
MUR
 70
    64
  3
Solid line (for MAPS)
 72
    65
 73
     0
 40
0.0
  0
LTYPE
  5
48
100
AcDbSymbolTableRecord
100
AcDbLinetypeTableRecord
  2
SOM
 70
    64
  3
Solid line (for MAPS)
 72
    65
 73
     0
 40
0.0
  0
LTYPE
  5
49
100
AcDbSymbolTableRecord
100
AcDbLinetypeTableRecord
  2
COL
 70
    64
  3
Solid line (for MAPS)
 72
    65
 73
     0
 40
0.0
  0
LTYPE
  5
4A
100
AcDbSymbolTableRecord
100
AcDbLinetypeTableRecord
  2
LGN
 70
    64
  3
Solid line (for MAPS)
 72
    65
 73
     0
 40
0.0
  0
LTYPE
  5
4B
100
AcDbSymbolTableRecord
100
AcDbLinetypeTableRecord
  2
PNT
 70
    64
  3
Solid line (for MAPS)
 72
    65
 73
     0
 40
0.0
  0
ENDTAB
  0
TABLE
  2
LAYER
  5
4C
100
AcDbSymbolTable
 70
    44
  0
LAYER
  5
4D
100
AcDbSymbolTableRecord
100
AcDbLayerTableRecord
  2
leer
 70
     0
 62
     7
  6
CONTINUOUS
370
    -3
  0
LAYER
  5
4E
100
AcDbSymbolTableRecord
100
AcDbLayerTableRecord
  2
eg
 70
     0
 62
     7
  6
CONTINUOUS
370
     5
  0
LAYER
  5
4F
100
AcDbSymbolTableRecord
100
AcDbLayerTableRecord
  2
detail
 70
     0
 62
     7
  6
CONTINUOUS
370
     5
  0
LAYER
  5
50
100
AcDbSymbolTableRecord
100
AcDbLayerTableRecord
  2
detail
 70
     0
 62
     7
  6
CONTINUOUS
370
     5
  0
LAYER
  5
51
100
AcDbSymbolTableRecord
100
AcDbLayerTableRecord
  2
ug-kanalisation
 70
     0
 62
     7
  6
CONTINUOUS
370
    18
  0
LAYER
  5
52
100
AcDbSymbolTableRecord
100
AcDbLayerTableRecord
  2
Layer_6
 70
     0
 62
     7
  6
CONTINUOUS
370
    -3
  0
LAYER
  5
53
100
AcDbSymbolTableRecord
100
AcDbLayerTableRecord
  2
projekt
 70
     0
 62
     7
  6
CONTINUOUS
370
    -3
  0
LAYER
  5
54
100
AcDbSymbolTableRecord
100
AcDbLayerTableRecord
  2
projekt
 70
     0
 62
     7
  6
CONTINUOUS
370
    -3
  0
LAYER
  5
55
100
AcDbSymbolTableRecord
100
AcDbLayerTableRecord
  2
projekt
 70
     0
 62
     7
  6
CONTINUOUS
370
    -3
  0
LAYER
  5
56
100
AcDbSymbolTableRecord
100
AcDbLayerTableRecord
  2
EG
 70
     0
 62
     7
  6
CONTINUOUS
370
     5
  0
LAYER
  5
57
100
AcDbSymbolTableRecord
100
AcDbLayerTableRecord
  2
TEAM-DET1
 70
     0
 62
     5
  6
CONTINUOUS
370
    25
  0
LAYER
  5
58
100
AcDbSymbolTableRecord
100
AcDbLayerTableRecord
  2
TEAM-BODY
 70
     0
 62
     5
  6
CONTINUOUS
370
    25
  0
LAYER
  5
59
100
AcDbSymbolTableRecord
100
AcDbLayerTableRecord
  2
TEAM-INSP
 70
     0
 62
     5
  6
CONTINUOUS
370
    25
  0
LAYER
  5
5A
100
AcDbSymbolTableRecord
100
AcDbLayerTableRecord
  2
S_Einrichtung
 70
     0
 62
     5
  6
CONTINUOUS
370
    25
  0
LAYER
  5
5B
100
AcDbSymbolTableRecord
100
AcDbLayerTableRecord
  2
Layer_15
 70
     0
 62
     7
  6
CONTINUOUS
370
     5
  0
LAYER
  5
5C
100
AcDbSymbolTableRecord
100
AcDbLayerTableRecord
  2
schnitt
 70
     0
 62
     7
  6
CONTINUOUS
370
     5
  0
LAYER
  5
5D
100
AcDbSymbolTableRecord
100
AcDbLayerTableRecord
  2
Layer_3
 70
     0
 62
     7
  6
CONTINUOUS
370
     5
  0
LAYER
  5
5E
100
AcDbSymbolTableRecord
100
AcDbLayerTableRecord
  2
0
 70
     0
 62
     7
  6
CONTINUOUS
370
    -3
  0
LAYER
  5
5F
100
AcDbSymbolTableRecord
100
AcDbLayerTableRecord
  2
Schraffur
 70
     0
 62
     8
  6
CONTINUOUS
370
    -3
  0
LAYER
  5
60
100
AcDbSymbolTableRecord
100
AcDbLayerTableRecord
  2
Umriss02
 70
     0
 62
     1
  6
CONTINUOUS
370
    -3
  0
LAYER
  5
61
100
AcDbSymbolTableRecord
100
AcDbLayerTableRecord
  2
Umriss05
 70
     0
 62
     3
  6
CONTINUOUS
370
    -3
  0
LAYER
  5
62
100
AcDbSymbolTableRecord
100
AcDbLayerTableRecord
  2
Achse
 70
     0
 62
   104
  6
DASHDOT
370
    -3
  0
LAYER
  5
63
100
AcDbSymbolTableRecord
100
AcDbLayerTableRecord
  2
Averdeckt
 70
     0
 62
   130
  6
CADWORK_AC4
370
    -3
  0
LAYER
  5
64
100
AcDbSymbolTableRecord
100
AcDbLayerTableRecord
  2
Glas
 70
     0
 62
     4
  6
CONTINUOUS
370
    -3
  0
LAYER
  5
65
100
AcDbSymbolTableRecord
100
AcDbLayerTableRecord
  2
ACHSEN
 70
     0
 62
     7
  6
CONTINUOUS
370
    -3
  0
LAYER
  5
66
100
AcDbSymbolTableRecord
100
AcDbLayerTableRecord
  2
SCHNITTLINIE
 70
     0
 62
     5
  6
CONTINUOUS
370
    -3
  0
LAYER
  5
67
100
AcDbSymbolTableRecord
100
AcDbLayerTableRecord
  2
SCHRAFFUREN
 70
     0
 62
     7
  6
CONTINUOUS
370
    -3
  0
LAYER
  5
68
100
AcDbSymbolTableRecord
100
AcDbLayerTableRecord
  2
TEXTE
 70
     0
 62
     7
  6
CONTINUOUS
370
    -3
  0
LAYER
  5
69
100
AcDbSymbolTableRecord
100
AcDbLayerTableRecord
  2
SCHRAFFUR
 70
     0
 62
     3
  6
CONTINUOUS
370
    -3
  0
LAYER
  5
6A
100
AcDbSymbolTableRecord
100
AcDbLayerTableRecord
  2
ISOLATION
 70
     0
 62
     3
  6
CONTINUOUS
370
    -3
  0
LAYER
  5
6B
100
AcDbSymbolTableRecord
100
AcDbLayerTableRecord
  2
GLAS
 70
     0
 62
     3
  6
CONTINUOUS
370
    -3
  0
LAYER
  5
6C
100
AcDbSymbolTableRecord
100
AcDbLayerTableRecord
  2
ISOLIERGLAS
 70
     0
 62
     4
  6
CONTINUOUS
370
    -3
  0
LAYER
  5
6D
100
AcDbSymbolTableRecord
100
AcDbLayerTableRecord
  2
DOTS
 70
     0
 62
     2
  6
CONTINUOUS
370
    -3
  0
LAYER
  5
6E
100
AcDbSymbolTableRecord
100
AcDbLayerTableRecord
  2
GLASLEISTE
 70
     0
 62
     7
  6
CONTINUOUS
370
    -3
  0
LAYER
  5
6F
100
AcDbSymbolTableRecord
100
AcDbLayerTableRecord
  2
WEICHLIPPE
 70
     0
 62
     3
  6
CONTINUOUS
370
    -3
  0
LAYER
  5
70
100
AcDbSymbolTableRecord
100
AcDbLayerTableRecord
  2
GLASFALZEINLAGE
 70
     0
 62
     4
  6
CONTINUOUS
370
    -3
  0
LAYER
  5
71
100
AcDbSymbolTableRecord
100
AcDbLayerTableRecord
  2
FESTVERGLASUNGSDICHTUNG
 70
     0
 62
     3
  6
CONTINUOUS
370
    -3
  0
LAYER
  5
72
100
AcDbSymbolTableRecord
100
AcDbLayerTableRecord
  2
VERKLOTZUNG30
 70
     0
 62
     4
  6
CONTINUOUS
370
    -3
  0
LAYER
  5
73
100
AcDbSymbolTableRecord
100
AcDbLayerTableRecord
  2
RAHMENPROFIL
 70
     0
 62
     7
  6
CONTINUOUS
370
    -3
  0
LAYER
  5
74
100
AcDbSymbolTableRecord
100
AcDbLayerTableRecord
  2
RAHMENVERSTÄRKUNG
 70
     0
 62
     4
  6
CONTINUOUS
370
    -3
  0
LAYER
  5
75
100
AcDbSymbolTableRecord
100
AcDbLayerTableRecord
  2
lANDFLÄCHEN
 70
     0
 62
     7
  6
CONTINUOUS
370
    18
  0
LAYER
  5
76
100
AcDbSymbolTableRecord
100
AcDbLayerTableRecord
  2
Layer_42
 70
     0
 62
     7
  6
CONTINUOUS
370
     5
  0
LAYER
  5
77
100
AcDbSymbolTableRecord
100
AcDbLayerTableRecord
  2
Layer_43
 70
     0
 62
     7
  6
CONTINUOUS
370
     5
  0
LAYER
  5
78
100
AcDbSymbolTableRecord
100
AcDbLayerTableRecord
  2
Layer_44
 70
     0
 62
     7
  6
CONTINUOUS
370
     5
  0
ENDTAB
  0
TABLE
  2
VIEW
  5
79
100
AcDbSymbolTable
 70
     0
  0
ENDTAB
  0
TABLE
  2
UCS
  5
7A
100
AcDbSymbolTable
 70
     0
  0
ENDTAB
  0
TABLE
  2
APPID
  5
7B
100
AcDbSymbolTable
 70
     1
  0
APPID
  5
7C
100
AcDbSymbolTableRecord
100
AcDbRegAppTableRecord
  2
ACAD
 70
     0
  0
ENDTAB
  0
TABLE
  2
DIMSTYLE
  5
7D
100
AcDbSymbolTable
 70
     0
  0
ENDTAB
  0
TABLE
  2
BLOCK_RECORD
  5
7E
100
AcDbSymbolTable
 70
     0
  0
BLOCK_RECORD
  5
7F
100
AcDbSymbolTableRecord
100
AcDbBlockTableRecord
  2
*MODEL_SPACE
  0
BLOCK_RECORD
  5
80
100
AcDbSymbolTableRecord
100
AcDbBlockTableRecord
  2
*PAPER_SPACE
  0
BLOCK_RECORD
  5
81
100
AcDbSymbolTableRecord
100
AcDbBlockTableRecord
  2
CDWK_EXTR_0
  0
BLOCK_RECORD
  5
82
100
AcDbSymbolTableRecord
100
AcDbBlockTableRecord
  2
CDWK_EXTR_1D
  0
BLOCK_RECORD
  5
83
100
AcDbSymbolTableRecord
100
AcDbBlockTableRecord
  2
CDWK_EXTR_1G
  0
BLOCK_RECORD
  5
84
100
AcDbSymbolTableRecord
100
AcDbBlockTableRecord
  2
CDWK_EXTR_2
  0
BLOCK_RECORD
  5
85
100
AcDbSymbolTableRecord
100
AcDbBlockTableRecord
  2
CDWK_EXTR_3
  0
BLOCK_RECORD
  5
86
100
AcDbSymbolTableRecord
100
AcDbBlockTableRecord
  2
CDWK_EXTR_4
  0
BLOCK_RECORD
  5
87
100
AcDbSymbolTableRecord
100
AcDbBlockTableRecord
  2
CDWK_PTTYP0
  0
BLOCK_RECORD
  5
88
100
AcDbSymbolTableRecord
100
AcDbBlockTableRecord
  2
*X1
  0
BLOCK_RECORD
  5
89
100
AcDbSymbolTableRecord
100
AcDbBlockTableRecord
  2
*X2
  0
BLOCK_RECORD
  5
8A
100
AcDbSymbolTableRecord
100
AcDbBlockTableRecord
  2
*X3
  0
BLOCK_RECORD
  5
8B
100
AcDbSymbolTableRecord
100
AcDbBlockTableRecord
  2
*X4
  0
BLOCK_RECORD
  5
8C
100
AcDbSymbolTableRecord
100
AcDbBlockTableRecord
  2
*D1
  0
BLOCK_RECORD
  5
8D
100
AcDbSymbolTableRecord
100
AcDbBlockTableRecord
  2
*D2
  0
BLOCK_RECORD
  5
8E
100
AcDbSymbolTableRecord
100
AcDbBlockTableRecord
  2
*D3
  0
BLOCK_RECORD
  5
8F
100
AcDbSymbolTableRecord
100
AcDbBlockTableRecord
  2
*D4
  0
BLOCK_RECORD
  5
90
100
AcDbSymbolTableRecord
100
AcDbBlockTableRecord
  2
*D5
  0
BLOCK_RECORD
  5
91
100
AcDbSymbolTableRecord
100
AcDbBlockTableRecord
  2
*D6
  0
BLOCK_RECORD
  5
92
100
AcDbSymbolTableRecord
100
AcDbBlockTableRecord
  2
*D7
  0
BLOCK_RECORD
  5
93
100
AcDbSymbolTableRecord
100
AcDbBlockTableRecord
  2
*D8
  0
BLOCK_RECORD
  5
94
100
AcDbSymbolTableRecord
100
AcDbBlockTableRecord
  2
*D9
  0
ENDTAB
  0
ENDSEC
  0
SECTION
  2
BLOCKS
  0
BLOCK
  5
95
100
AcDbEntity
  8
0
100
AcDbBlockBegin
  2
*MODEL_SPACE
 70
     0
 10
0.0
 20
0.0
 30
0.0
  3
*MODEL_SPACE
  1

  0
ENDBLK
  5
96
100
AcDbEntity
100
AcDbBlockEnd
  0
BLOCK
  5
97
100
AcDbEntity
  8
0
100
AcDbBlockBegin
  2
*PAPER_SPACE
 70
     0
 10
0.0
 20
0.0
 30
0.0
  3
*PAPER_SPACE
  1

  0
ENDBLK
  5
98
100
AcDbEntity
100
AcDbBlockEnd
  0
BLOCK
  5
99
100
AcDbEntity
  8
0
100
AcDbBlockBegin
  2
CDWK_EXTR_0
 70
     0
 10
0.0
 20
0.0
 30
0.0
  3
CDWK_EXTR_0
  1

  4
Cadwork line-extremity
  0
LINE
  5
9A
100
AcDbEntity
  8
0
 62
     0
370
    -2
100
AcDbLine
 10
0.0
 20
0.0
 30
0.0
 11
2.0
 21
0.5
 31
0.0
  0
LINE
  5
9B
100
AcDbEntity
  8
0
 62
     0
370
    -2
100
AcDbLine
 10
0.0
 20
0.0
 30
0.0
 11
2.0
 21
-0.5
 31
0.0
  0
LINE
  5
9C
100
AcDbEntity
  8
0
 62
     0
370
    -2
100
AcDbLine
 10
2.0
 20
0.5
 30
0.0
 11
2.0
 21
-0.5
 31
0.0
  0
ENDBLK
  5
9D
100
AcDbEntity
100
AcDbBlockEnd
  0
BLOCK
  5
9E
100
AcDbEntity
  8
0
100
AcDbBlockBegin
  2
CDWK_EXTR_1D
 70
     0
 10
0.0
 20
0.0
 30
0.0
  3
CDWK_EXTR_1D
  1

  4
Cadwork line-extremity
  0
LINE
  5
9F
100
AcDbEntity
  8
0
 62
     0
370
    -2
100
AcDbLine
 10
0.0
 20
0.0
 30
0.0
 11
0.0
 21
1.0
 31
0.0
  0
LINE
  5
A0
100
AcDbEntity
  8
0
 62
     0
370
    -2
100
AcDbLine
 10
0.0
 20
1.0
 30
0.0
 11
0.5
 21
1.5
 31
0.0
  0
LINE
  5
A1
100
AcDbEntity
  8
0
 62
     0
370
    -2
100
AcDbLine
 10
0.5
 20
1.5
 30
0.0
 11
1.5
 21
1.5
 31
0.0
  0
ENDBLK
  5
A2
100
AcDbEntity
100
AcDbBlockEnd
  0
BLOCK
  5
A3
100
AcDbEntity
  8
0
100
AcDbBlockBegin
  2
CDWK_EXTR_1G
 70
     0
 10
0.0
 20
0.0
 30
0.0
  3
CDWK_EXTR_1G
  1

  4
Cadwork line-extremity
  0
LINE
  5
A4
100
AcDbEntity
  8
0
 62
     0
370
    -2
100
AcDbLine
 10
0.0
 20
0.0
 30
0.0
 11
0.0
 21
-1.0
 31
0.0
  0
LINE
  5
A5
100
AcDbEntity
  8
0
 62
     0
370
    -2
100
AcDbLine
 10
0.0
 20
-1.0
 30
0.0
 11
0.5
 21
-1.5
 31
0.0
  0
LINE
  5
A6
100
AcDbEntity
  8
0
 62
     0
370
    -2
100
AcDbLine
 10
0.5
 20
-1.5
 30
0.0
 11
1.5
 21
-1.5
 31
0.0
  0
ENDBLK
  5
A7
100
AcDbEntity
100
AcDbBlockEnd
  0
BLOCK
  5
A8
100
AcDbEntity
  8
0
100
AcDbBlockBegin
  2
CDWK_EXTR_2
 70
     0
 10
0.0
 20
0.0
 30
0.0
  3
CDWK_EXTR_2
  1

  4
Cadwork line-extremity
  0
SOLID
  5
A9
100
AcDbEntity
  8
0
 62
     0
100
AcDbTrace
 10
0.0
 20
0.0
 11
2.0
 21
0.5
 12
2.0
 22
-0.5
 13
2.0
 23
-0.5
  0
ENDBLK
  5
AA
100
AcDbEntity
100
AcDbBlockEnd
  0
BLOCK
  5
AB
100
AcDbEntity
  8
0
100
AcDbBlockBegin
  2
CDWK_EXTR_3
 70
     0
 10
0.0
 20
0.0
 30
0.0
  3
CDWK_EXTR_3
  1

  4
Cadwork line-extremity
  0
SOLID
  5
AC
100
AcDbEntity
  8
0
 62
     0
100
AcDbTrace
 10
0.0
 20
0.0
 11
2.0
 21
0.5
 12
2.0
 22
-0.5
 13
2.0
 23
-0.5
  0
LINE
  5
AD
100
AcDbEntity
  8
0
 62
     0
370
    -2
100
AcDbLine
 10
0.0
 20
1.0
 30
0.0
 11
0.0
 21
-1.0
 31
0.0
  0
ENDBLK
  5
AE
100
AcDbEntity
100
AcDbBlockEnd
  0
BLOCK
  5
AF
100
AcDbEntity
  8
0
100
AcDbBlockBegin
  2
CDWK_EXTR_4
 70
     0
 10
0.0
 20
0.0
 30
0.0
  3
CDWK_EXTR_4
  1

  4
Cadwork line-extremity
  0
HATCH
  5
B0
100
AcDbEntity
  8
0
 62
     0
370
    -2
100
AcDbHatch
 10
0.0
 20
0.0
 30
0.0
210
0.0
220
0.0
230
1.0
  2
SOLID
 70
     1
 71
     0
 91
        1
 92
        1
 93
        1
 72
     2
 10
0.0
 20
0.0
 40
0.5
 50
0.0
 51
360.0
 73
     1
 97
        0
 75
     0
 76
     1
 98
        1
 10
0.0
 20
0.0
  0
ENDBLK
  5
B1
100
AcDbEntity
100
AcDbBlockEnd
  0
BLOCK
  5
B2
100
AcDbEntity
  8
0
100
AcDbBlockBegin
  2
CDWK_PTTYP0
 70
     0
 10
0.0
 20
0.0
 30
0.0
  3
CDWK_PTTYP0
  1

  4
Cadwork point
  0
POINT
  5
B3
100
AcDbEntity
  8
0
 62
     0
100
AcDbPoint
 10
0.0
 20
0.0
 30
0.0
  0
ENDBLK
  5
B4
100
AcDbEntity
100
AcDbBlockEnd
  0
BLOCK
  5
B5
100
AcDbEntity
  8
detail
100
AcDbBlockBegin
  2
*X1
 70
     1
 10
0.0
 20
0.0
 30
0.0
  3
*X1
  1

  4
Cadwork hatch
  0
LINE
  5
B6
100
AcDbEntity
  8
detail
 62
    16
  6
CONTINUOUS
370
    -2
100
AcDbLine
 10
1.87
 20
-5.52623166
 30
0.0
 11
1.87
 21
-5.53023166
 31
0.0
  0
LINE
  5
B7
100
AcDbEntity
  8
detail
 62
    16
  6
CONTINUOUS
370
    -2
100
AcDbLine
 10
1.8725
 20
-5.52623166
 30
0.0
 11
1.8725
 21
-5.53023166
 31
0.0
  0
LINE
  5
B8
100
AcDbEntity
  8
detail
 62
    16
  6
CONTINUOUS
370
    -2
100
AcDbLine
 10
1.875
 20
-5.52623166
 30
0.0
 11
1.875
 21
-5.53023166
 31
0.0
  0
LINE
  5
B9
100
AcDbEntity
  8
detail
 62
    16
  6
CONTINUOUS
370
    -2
100
AcDbLine
 10
1.8775
 20
-5.52623166
 30
0.0
 11
1.8775
 21
-5.53023166
 31
0.0
  0
LINE
  5
BA
100
AcDbEntity
  8
detail
 62
    16
  6
CONTINUOUS
370
    -2
100
AcDbLine
 10
1.88
 20
-5.52623166
 30
0.0
 11
1.88
 21
-5.53023166
 31
0.0
  0
LINE
  5
BB
100
AcDbEntity
  8
detail
 62
    16
  6
CONTINUOUS
370
    -2
100
AcDbLine
 10
1.8825
 20
-5.52623166
 30
0.0
 11
1.8825
 21
-5.53023166
 31
0.0
  0
LINE
  5
BC
100
AcDbEntity
  8
detail
 62
    16
  6
CONTINUOUS
370
    -2
100
AcDbLine
 10
1.885
 20
-5.52623166
 30
0.0
 11
1.885
 21
-5.53023166
 31
0.0
  0
LINE
  5
BD
100
AcDbEntity
  8
detail
 62
    16
  6
CONTINUOUS
370
    -2
100
AcDbLine
 10
1.8875
 20
-5.52623166
 30
0.0
 11
1.8875
 21
-5.53023166
 31
0.0
  0
LINE
  5
BE
100
AcDbEntity
  8
detail
 62
    16
  6
CONTINUOUS
370
    -2
100
AcDbLine
 10
1.89
 20
-5.52623166
 30
0.0
 11
1.89
 21
-5.53023166
 31
0.0
  0
LINE
  5
BF
100
AcDbEntity
  8
detail
 62
    16
  6
CONTINUOUS
370
    -2
100
AcDbLine
 10
1.8925
 20
-5.52623166
 30
0.0
 11
1.8925
 21
-5.53023166
 31
0.0
  0
LINE
  5
C0
100
AcDbEntity
  8
detail
 62
    16
  6
CONTINUOUS
370
    -2
100
AcDbLine
 10
1.895
 20
-5.52623166
 30
0.0
 11
1.895
 21
-5.53023166
 31
0.0
  0
LINE
  5
C1
100
AcDbEntity
  8
detail
 62
    16
  6
CONTINUOUS
370
    -2
100
AcDbLine
 10
1.8975
 20
-5.52623166
 30
0.0
 11
1.8975
 21
-5.53023166
 31
0.0
  0
LINE
  5
C2
100
AcDbEntity
  8
detail
 62
    16
  6
CONTINUOUS
370
    -2
100
AcDbLine
 10
1.9
 20
-5.52623166
 30
0.0
 11
1.9
 21
-5.53023166
 31
0.0
  0
LINE
  5
C3
100
AcDbEntity
  8
detail
 62
    16
  6
CONTINUOUS
370
    -2
100
AcDbLine
 10
1.9025
 20
-5.52623166
 30
0.0
 11
1.9025
 21
-5.53023166
 31
0.0
  0
LINE
  5
C4
100
AcDbEntity
  8
detail
 62
    16
  6
CONTINUOUS
370
    -2
100
AcDbLine
 10
1.905
 20
-5.52623166
 30
0.0
 11
1.905
 21
-5.53023166
 31
0.0
  0
LINE
  5
C5
100
AcDbEntity
  8
detail
 62
    16
  6
CONTINUOUS
370
    -2
100
AcDbLine
 10
1.9075
 20
-5.52623166
 30
0.0
 11
1.9075
 21
-5.53023166
 31
0.0
  0
LINE
  5
C6
100
AcDbEntity
  8
detail
 62
    16
  6
CONTINUOUS
370
    -2
100
AcDbLine
 10
1.91
 20
-5.52623166
 30
0.0
 11
1.91
 21
-5.53023166
 31
0.0
  0
LINE
  5
C7
100
AcDbEntity
  8
detail
 62
    16
  6
CONTINUOUS
370
    -2
100
AcDbLine
 10
1.9125
 20
-5.52623166
 30
0.0
 11
1.9125
 21
-5.53023166
 31
0.0
  0
LINE
  5
C8
100
AcDbEntity
  8
detail
 62
    16
  6
CONTINUOUS
370
    -2
100
AcDbLine
 10
1.915
 20
-5.52623166
 30
0.0
 11
1.915
 21
-5.53023166
 31
0.0
  0
LINE
  5
C9
100
AcDbEntity
  8
detail
 62
    16
  6
CONTINUOUS
370
    -2
100
AcDbLine
 10
1.9175
 20
-5.52623166
 30
0.0
 11
1.9175
 21
-5.53023166
 31
0.0
  0
LINE
  5
CA
100
AcDbEntity
  8
detail
 62
    16
  6
CONTINUOUS
370
    -2
100
AcDbLine
 10
1.92
 20
-5.52623166
 30
0.0
 11
1.92
 21
-5.53023166
 31
0.0
  0
LINE
  5
CB
100
AcDbEntity
  8
detail
 62
    16
  6
CONTINUOUS
370
    -2
100
AcDbLine
 10
1.9225
 20
-5.52623166
 30
0.0
 11
1.9225
 21
-5.53023166
 31
0.0
  0
LINE
  5
CC
100
AcDbEntity
  8
detail
 62
    16
  6
CONTINUOUS
370
    -2
100
AcDbLine
 10
1.925
 20
-5.52623166
 30
0.0
 11
1.925
 21
-5.53023166
 31
0.0
  0
LINE
  5
CD
100
AcDbEntity
  8
detail
 62
    16
  6
CONTINUOUS
370
    -2
100
AcDbLine
 10
1.9275
 20
-5.52623166
 30
0.0
 11
1.9275
 21
-5.53023166
 31
0.0
  0
LINE
  5
CE
100
AcDbEntity
  8
detail
 62
    16
  6
CONTINUOUS
370
    -2
100
AcDbLine
 10
1.93
 20
-5.52623166
 30
0.0
 11
1.93
 21
-5.53023166
 31
0.0
  0
LINE
  5
CF
100
AcDbEntity
  8
detail
 62
    16
  6
CONTINUOUS
370
    -2
100
AcDbLine
 10
1.9325
 20
-5.52623166
 30
0.0
 11
1.9325
 21
-5.53023166
 31
0.0
  0
LINE
  5
D0
100
AcDbEntity
  8
detail
 62
    16
  6
CONTINUOUS
370
    -2
100
AcDbLine
 10
1.935
 20
-5.52623166
 30
0.0
 11
1.935
 21
-5.53023166
 31
0.0
  0
LINE
  5
D1
100
AcDbEntity
  8
detail
 62
    16
  6
CONTINUOUS
370
    -2
100
AcDbLine
 10
1.9375
 20
-5.52623166
 30
0.0
 11
1.9375
 21
-5.53023166
 31
0.0
  0
LINE
  5
D2
100
AcDbEntity
  8
detail
 62
    16
  6
CONTINUOUS
370
    -2
100
AcDbLine
 10
1.94
 20
-5.52623166
 30
0.0
 11
1.94
 21
-5.53023166
 31
0.0
  0
LINE
  5
D3
100
AcDbEntity
  8
detail
 62
    16
  6
CONTINUOUS
370
    -2
100
AcDbLine
 10
1.9425
 20
-5.52623166
 30
0.0
 11
1.9425
 21
-5.53023166
 31
0.0
  0
ENDBLK
  5
D4
100
AcDbEntity
100
AcDbBlockEnd
  0
BLOCK
  5
D5
100
AcDbEntity
  8
detail
100
AcDbBlockBegin
  2
*X2
 70
     1
 10
0.0
 20
0.0
 30
0.0
  3
*X2
  1

  4
Cadwork hatch
  0
LINE
  5
D6
100
AcDbEntity
  8
detail
 62
    16
  6
CONTINUOUS
370
    -2
100
AcDbLine
 10
1.85903421
 20
-5.53023166
 30
0.0
 11
1.85291529
 21
-5.53635057
 31
0.0
  0
LINE
  5
D7
100
AcDbEntity
  8
detail
 62
    16
  6
CONTINUOUS
370
    -2
100
AcDbLine
 10
1.86610528
 20
-5.53023166
 30
0.0
 11
1.85291529
 21
-5.54342164
 31
0.0
  0
LINE
  5
D8
100
AcDbEntity
  8
detail
 62
    16
  6
CONTINUOUS
370
    -2
100
AcDbLine
 10
1.87317634
 20
-5.53023166
 30
0.0
 11
1.85291529
 21
-5.55049271
 31
0.0
  0
LINE
  5
D9
100
AcDbEntity
  8
detail
 62
    16
  6
CONTINUOUS
370
    -2
100
AcDbLine
 10
1.88024741
 20
-5.53023166
 30
0.0
 11
1.85624741
 21
-5.55423166
 31
0.0
  0
LINE
  5
DA
100
AcDbEntity
  8
detail
 62
    16
  6
CONTINUOUS
370
    -2
100
AcDbLine
 10
1.88731848
 20
-5.53023166
 30
0.0
 11
1.86331848
 21
-5.55423166
 31
0.0
  0
LINE
  5
DB
100
AcDbEntity
  8
detail
 62
    16
  6
CONTINUOUS
370
    -2
100
AcDbLine
 10
1.89438955
 20
-5.53023166
 30
0.0
 11
1.87038955
 21
-5.55423166
 31
0.0
  0
LINE
  5
DC
100
AcDbEntity
  8
detail
 62
    16
  6
CONTINUOUS
370
    -2
100
AcDbLine
 10
1.90146061
 20
-5.53023166
 30
0.0
 11
1.87746061
 21
-5.55423166
 31
0.0
  0
LINE
  5
DD
100
AcDbEntity
  8
detail
 62
    16
  6
CONTINUOUS
370
    -2
100
AcDbLine
 10
1.90853168
 20
-5.53023166
 30
0.0
 11
1.88453168
 21
-5.55423166
 31
0.0
  0
LINE
  5
DE
100
AcDbEntity
  8
detail
 62
    16
  6
CONTINUOUS
370
    -2
100
AcDbLine
 10
1.91560275
 20
-5.53023166
 30
0.0
 11
1.89160275
 21
-5.55423166
 31
0.0
  0
LINE
  5
DF
100
AcDbEntity
  8
detail
 62
    16
  6
CONTINUOUS
370
    -2
100
AcDbLine
 10
1.92267382
 20
-5.53023166
 30
0.0
 11
1.89867382
 21
-5.55423166
 31
0.0
  0
LINE
  5
E0
100
AcDbEntity
  8
detail
 62
    16
  6
CONTINUOUS
370
    -2
100
AcDbLine
 10
1.92974489
 20
-5.53023166
 30
0.0
 11
1.90574489
 21
-5.55423166
 31
0.0
  0
LINE
  5
E1
100
AcDbEntity
  8
detail
 62
    16
  6
CONTINUOUS
370
    -2
100
AcDbLine
 10
1.93681595
 20
-5.53023166
 30
0.0
 11
1.91281595
 21
-5.55423166
 31
0.0
  0
LINE
  5
E2
100
AcDbEntity
  8
detail
 62
    16
  6
CONTINUOUS
370
    -2
100
AcDbLine
 10
1.94329878
 20
-5.5308199
 30
0.0
 11
1.91988702
 21
-5.55423166
 31
0.0
  0
LINE
  5
E3
100
AcDbEntity
  8
detail
 62
    16
  6
CONTINUOUS
370
    -2
100
AcDbLine
 10
1.94329878
 20
-5.53789096
 30
0.0
 11
1.92695809
 21
-5.55423166
 31
0.0
  0
LINE
  5
E4
100
AcDbEntity
  8
detail
 62
    16
  6
CONTINUOUS
370
    -2
100
AcDbLine
 10
1.94329878
 20
-5.54496203
 30
0.0
 11
1.93402916
 21
-5.55423166
 31
0.0
  0
LINE
  5
E5
100
AcDbEntity
  8
detail
 62
    16
  6
CONTINUOUS
370
    -2
100
AcDbLine
 10
1.94329878
 20
-5.5520331
 30
0.0
 11
1.94110022
 21
-5.55423166
 31
0.0
  0
LINE
  5
E6
100
AcDbEntity
  8
detail
 62
    16
  6
CONTINUOUS
370
    -2
100
AcDbLine
 10
1.85291529
 20
-5.55108376
 30
0.0
 11
1.85606319
 21
-5.55423166
 31
0.0
  0
LINE
  5
E7
100
AcDbEntity
  8
detail
 62
    16
  6
CONTINUOUS
370
    -2
100
AcDbLine
 10
1.85291529
 20
-5.54401269
 30
0.0
 11
1.86313426
 21
-5.55423166
 31
0.0
  0
LINE
  5
E8
100
AcDbEntity
  8
detail
 62
    16
  6
CONTINUOUS
370
    -2
100
AcDbLine
 10
1.85291529
 20
-5.53694162
 30
0.0
 11
1.87020533
 21
-5.55423166
 31
0.0
  0
LINE
  5
E9
100
AcDbEntity
  8
detail
 62
    16
  6
CONTINUOUS
370
    -2
100
AcDbLine
 10
1.85327639
 20
-5.53023166
 30
0.0
 11
1.87727639
 21
-5.55423166
 31
0.0
  0
LINE
  5
EA
100
AcDbEntity
  8
detail
 62
    16
  6
CONTINUOUS
370
    -2
100
AcDbLine
 10
1.86034746
 20
-5.53023166
 30
0.0
 11
1.88434746
 21
-5.55423166
 31
0.0
  0
LINE
  5
EB
100
AcDbEntity
  8
detail
 62
    16
  6
CONTINUOUS
370
    -2
100
AcDbLine
 10
1.86741853
 20
-5.53023166
 30
0.0
 11
1.89141853
 21
-5.55423166
 31
0.0
  0
LINE
  5
EC
100
AcDbEntity
  8
detail
 62
    16
  6
CONTINUOUS
370
    -2
100
AcDbLine
 10
1.8744896
 20
-5.53023166
 30
0.0
 11
1.8984896
 21
-5.55423166
 31
0.0
  0
LINE
  5
ED
100
AcDbEntity
  8
detail
 62
    16
  6
CONTINUOUS
370
    -2
100
AcDbLine
 10
1.88156066
 20
-5.53023166
 30
0.0
 11
1.90556066
 21
-5.55423166
 31
0.0
  0
LINE
  5
EE
100
AcDbEntity
  8
detail
 62
    16
  6
CONTINUOUS
370
    -2
100
AcDbLine
 10
1.88863173
 20
-5.53023166
 30
0.0
 11
1.91263173
 21
-5.55423166
 31
0.0
  0
LINE
  5
EF
100
AcDbEntity
  8
detail
 62
    16
  6
CONTINUOUS
370
    -2
100
AcDbLine
 10
1.8957028
 20
-5.53023166
 30
0.0
 11
1.9197028
 21
-5.55423166
 31
0.0
  0
LINE
  5
F0
100
AcDbEntity
  8
detail
 62
    16
  6
CONTINUOUS
370
    -2
100
AcDbLine
 10
1.90277387
 20
-5.53023166
 30
0.0
 11
1.92677387
 21
-5.55423166
 31
0.0
  0
LINE
  5
F1
100
AcDbEntity
  8
detail
 62
    16
  6
CONTINUOUS
370
    -2
100
AcDbLine
 10
1.90984494
 20
-5.53023166
 30
0.0
 11
1.93384494
 21
-5.55423166
 31
0.0
  0
LINE
  5
F2
100
AcDbEntity
  8
detail
 62
    16
  6
CONTINUOUS
370
    -2
100
AcDbLine
 10
1.916916
 20
-5.53023166
 30
0.0
 11
1.940916
 21
-5.55423166
 31
0.0
  0
LINE
  5
F3
100
AcDbEntity
  8
detail
 62
    16
  6
CONTINUOUS
370
    -2
100
AcDbLine
 10
1.92398707
 20
-5.53023166
 30
0.0
 11
1.94329878
 21
-5.54954337
 31
0.0
  0
LINE
  5
F4
100
AcDbEntity
  8
detail
 62
    16
  6
CONTINUOUS
370
    -2
100
AcDbLine
 10
1.93105814
 20
-5.53023166
 30
0.0
 11
1.94329878
 21
-5.5424723
 31
0.0
  0
LINE
  5
F5
100
AcDbEntity
  8
detail
 62
    16
  6
CONTINUOUS
370
    -2
100
AcDbLine
 10
1.93812921
 20
-5.53023166
 30
0.0
 11
1.94329878
 21
-5.53540123
 31
0.0
  0
ENDBLK
  5
F6
100
AcDbEntity
100
AcDbBlockEnd
  0
BLOCK
  5
F7
100
AcDbEntity
  8
detail
100
AcDbBlockBegin
  2
*X3
 70
     1
 10
0.0
 20
0.0
 30
0.0
  3
*X3
  1

  4
Cadwork hatch
  0
LINE
  5
F8
100
AcDbEntity
  8
detail
 62
   250
  6
CONTINUOUS
370
    -2
100
AcDbLine
 10
1.85291529
 20
-5.53125
 30
0.0
 11
1.83941529
 21
-5.53125
 31
0.0
  0
LINE
  5
F9
100
AcDbEntity
  8
detail
 62
   250
  6
CONTINUOUS
370
    -2
100
AcDbLine
 10
1.85291529
 20
-5.535
 30
0.0
 11
1.83941529
 21
-5.535
 31
0.0
  0
LINE
  5
FA
100
AcDbEntity
  8
detail
 62
   250
  6
CONTINUOUS
370
    -2
100
AcDbLine
 10
1.85291529
 20
-5.53875
 30
0.0
 11
1.83941529
 21
-5.53875
 31
0.0
  0
LINE
  5
FB
100
AcDbEntity
  8
detail
 62
   250
  6
CONTINUOUS
370
    -2
100
AcDbLine
 10
1.85291529
 20
-5.5425
 30
0.0
 11
1.83941529
 21
-5.5425
 31
0.0
  0
LINE
  5
FC
100
AcDbEntity
  8
detail
 62
   250
  6
CONTINUOUS
370
    -2
100
AcDbLine
 10
1.85291529
 20
-5.54625
 30
0.0
 11
1.83941529
 21
-5.54625
 31
0.0
  0
LINE
  5
FD
100
AcDbEntity
  8
detail
 62
   250
  6
CONTINUOUS
370
    -2
100
AcDbLine
 10
1.85291529
 20
-5.55
 30
0.0
 11
1.83941529
 21
-5.55
 31
0.0
  0
LINE
  5
FE
100
AcDbEntity
  8
detail
 62
   250
  6
CONTINUOUS
370
    -2
100
AcDbLine
 10
1.85291529
 20
-5.55375
 30
0.0
 11
1.83941529
 21
-5.55375
 31
0.0
  0
ENDBLK
  5
FF
100
AcDbEntity
100
AcDbBlockEnd
  0
BLOCK
  5
100
100
AcDbEntity
  8
detail
100
AcDbBlockBegin
  2
*X4
 70
     1
 10
0.0
 20
0.0
 30
0.0
  3
*X4
  1

  4
Cadwork hatch
  0
LINE
  5
101
100
AcDbEntity
  8
detail
 62
    16
  6
CONTINUOUS
370
    -2
100
AcDbLine
 10
1.82711578
 20
-5.49851047
 30
0.0
 11
1.82441529
 21
-5.50121096
 31
0.0
  0
LINE
  5
102
100
AcDbEntity
  8
detail
 62
    16
  6
CONTINUOUS
370
    -2
100
AcDbLine
 10
1.83418685
 20
-5.49851047
 30
0.0
 11
1.82826567
 21
-5.50443166
 31
0.0
  0
LINE
  5
103
100
AcDbEntity
  8
detail
 62
    16
  6
CONTINUOUS
370
    -2
100
AcDbLine
 10
1.84125792
 20
-5.49851047
 30
0.0
 11
1.83533673
 21
-5.50443166
 31
0.0
  0
LINE
  5
104
100
AcDbEntity
  8
detail
 62
    16
  6
CONTINUOUS
370
    -2
100
AcDbLine
 10
1.84832898
 20
-5.49851047
 30
0.0
 11
1.8424078
 21
-5.50443166
 31
0.0
  0
LINE
  5
105
100
AcDbEntity
  8
detail
 62
    16
  6
CONTINUOUS
370
    -2
100
AcDbLine
 10
1.85540005
 20
-5.49851047
 30
0.0
 11
1.84947887
 21
-5.50443166
 31
0.0
  0
LINE
  5
106
100
AcDbEntity
  8
detail
 62
    16
  6
CONTINUOUS
370
    -2
100
AcDbLine
 10
1.86247112
 20
-5.49851047
 30
0.0
 11
1.85654994
 21
-5.50443166
 31
0.0
  0
LINE
  5
107
100
AcDbEntity
  8
detail
 62
    16
  6
CONTINUOUS
370
    -2
100
AcDbLine
 10
1.86691529
 20
-5.50113737
 30
0.0
 11
1.863621
 21
-5.50443166
 31
0.0
  0
ENDBLK
  5
108
100
AcDbEntity
100
AcDbBlockEnd
  0
BLOCK
  5
109
100
AcDbEntity
  8
detail
100
AcDbBlockBegin
  2
*D1
 70
     1
 10
0.0
 20
0.0
 30
0.0
  3
*D1
  1

  4
Cadwork dimension
  0
TEXT
  5
10A
100
AcDbEntity
  8
detail
 62
   160
370
    18
100
AcDbText
 10
1.83725721
 20
-5.60878682
 30
0.0
 40
0.0016
  1
180
  7
FRUTIGER_55_ROMAN
 50
0.0
 41
0.94
 51
0.0
100
AcDbText
  0
LINE
  5
10B
100
AcDbEntity
  8
detail
 62
   160
370
    -2
100
AcDbLine
 10
1.82941529
 20
-5.61178682
 30
0.0
 11
1.82941529
 21
-5.60478682
 31
0.0
  0
LINE
  5
10C
100
AcDbEntity
  8
detail
 62
   160
370
    -2
100
AcDbLine
 10
1.84741529
 20
-5.61178682
 30
0.0
 11
1.84741529
 21
-5.60478682
 31
0.0
  0
LINE
  5
10D
100
AcDbEntity
  8
detail
 62
   160
370
    -2
100
AcDbLine
 10
1.82741529
 20
-5.60978682
 30
0.0
 11
1.84941529
 21
-5.60978682
 31
0.0
  0
LINE
  5
10E
100
AcDbEntity
  8
detail
 62
   160
370
    -2
100
AcDbLine
 10
1.82841529
 20
-5.61078682
 30
0.0
 11
1.83041529
 21
-5.60878682
 31
0.0
  0
LINE
  5
10F
100
AcDbEntity
  8
detail
 62
   160
370
    -2
100
AcDbLine
 10
1.84641529
 20
-5.61078682
 30
0.0
 11
1.84841529
 21
-5.60878682
 31
0.0
  0
ENDBLK
  5
110
100
AcDbEntity
100
AcDbBlockEnd
  0
BLOCK
  5
111
100
AcDbEntity
  8
detail
100
AcDbBlockBegin
  2
*D2
 70
     1
 10
0.0
 20
0.0
 30
0.0
  3
*D2
  1

  4
Cadwork dimension
  0
TEXT
  5
112
100
AcDbEntity
  8
detail
 62
   160
370
    18
100
AcDbText
 10
1.8800394
 20
-5.57797471
 30
0.0
 40
0.0016
  1
220 / 260
  7
FRUTIGER_55_ROMAN
 50
89.9999975
 41
0.94
 51
0.0
100
AcDbText
  0
LINE
  5
113
100
AcDbEntity
  8
detail
 62
   160
370
    -2
100
AcDbLine
 10
1.8830394
 20
-5.56023166
 30
0.0
 11
1.84784521
 21
-5.56023166
 31
0.0
  0
LINE
  5
114
100
AcDbEntity
  8
detail
 62
   160
370
    -2
100
AcDbLine
 10
1.8830394
 20
-5.58573166
 30
0.0
 11
1.84784521
 21
-5.58573166
 31
0.0
  0
LINE
  5
115
100
AcDbEntity
  8
detail
 62
   160
370
    -2
100
AcDbLine
 10
1.8810394
 20
-5.55823166
 30
0.0
 11
1.8810394
 21
-5.58773166
 31
0.0
  0
LINE
  5
116
100
AcDbEntity
  8
detail
 62
   160
370
    -2
100
AcDbLine
 10
1.8800394
 20
-5.55923166
 30
0.0
 11
1.8820394
 21
-5.56123166
 31
0.0
  0
LINE
  5
117
100
AcDbEntity
  8
detail
 62
   160
370
    -2
100
AcDbLine
 10
1.8800394
 20
-5.58473166
 30
0.0
 11
1.8820394
 21
-5.58673166
 31
0.0
  0
ENDBLK
  5
118
100
AcDbEntity
100
AcDbBlockEnd
  0
BLOCK
  5
119
100
AcDbEntity
  8
detail
100
AcDbBlockBegin
  2
*D3
 70
     1
 10
0.0
 20
0.0
 30
0.0
  3
*D3
  1

  4
Cadwork dimension
  0
TEXT
  5
11A
100
AcDbEntity
  8
detail
 62
   160
370
    18
100
AcDbText
 10
1.8800394
 20
-5.55812454
 30
0.0
 40
0.0016
  1
60
  7
FRUTIGER_55_ROMAN
 50
89.9999975
 41
0.94
 51
0.0
100
AcDbText
  0
LINE
  5
11B
100
AcDbEntity
  8
detail
 62
   160
370
    -2
100
AcDbLine
 10
1.8830394
 20
-5.55423166
 30
0.0
 11
1.8760394
 21
-5.55423166
 31
0.0
  0
LINE
  5
11C
100
AcDbEntity
  8
detail
 62
   160
370
    -2
100
AcDbLine
 10
1.8830394
 20
-5.56023166
 30
0.0
 11
1.84784521
 21
-5.56023166
 31
0.0
  0
LINE
  5
11D
100
AcDbEntity
  8
detail
 62
   160
370
    -2
100
AcDbLine
 10
1.8810394
 20
-5.55223166
 30
0.0
 11
1.8810394
 21
-5.56223166
 31
0.0
  0
LINE
  5
11E
100
AcDbEntity
  8
detail
 62
   160
370
    -2
100
AcDbLine
 10
1.8800394
 20
-5.55323166
 30
0.0
 11
1.8820394
 21
-5.55523166
 31
0.0
  0
LINE
  5
11F
100
AcDbEntity
  8
detail
 62
   160
370
    -2
100
AcDbLine
 10
1.8800394
 20
-5.55923166
 30
0.0
 11
1.8820394
 21
-5.56123166
 31
0.0
  0
ENDBLK
  5
120
100
AcDbEntity
100
AcDbBlockEnd
  0
BLOCK
  5
121
100
AcDbEntity
  8
detail
100
AcDbBlockBegin
  2
*D4
 70
     1
 10
0.0
 20
0.0
 30
0.0
  3
*D4
  1

  4
Cadwork dimension
  0
TEXT
  5
122
100
AcDbEntity
  8
detail
 62
   160
370
    18
100
AcDbText
 10
1.82574952
 20
-5.60237021
 30
0.0
 40
0.0016
  1
50
  7
FRUTIGER_55_ROMAN
 50
0.0
 41
0.94
 51
0.0
100
AcDbText
  0
LINE
  5
123
100
AcDbEntity
  8
detail
 62
   160
370
    -2
100
AcDbLine
 10
1.82441529
 20
-5.60537021
 30
0.0
 11
1.82441529
 21
-5.58978499
 31
0.0
  0
LINE
  5
124
100
AcDbEntity
  8
detail
 62
   160
370
    -2
100
AcDbLine
 10
1.82941529
 20
-5.60537021
 30
0.0
 11
1.82941529
 21
-5.58978499
 31
0.0
  0
LINE
  5
125
100
AcDbEntity
  8
detail
 62
   160
370
    -2
100
AcDbLine
 10
1.82241529
 20
-5.60337021
 30
0.0
 11
1.83141529
 21
-5.60337021
 31
0.0
  0
LINE
  5
126
100
AcDbEntity
  8
detail
 62
   160
370
    -2
100
AcDbLine
 10
1.82341529
 20
-5.60437021
 30
0.0
 11
1.82541529
 21
-5.60237021
 31
0.0
  0
LINE
  5
127
100
AcDbEntity
  8
detail
 62
   160
370
    -2
100
AcDbLine
 10
1.82841529
 20
-5.60437021
 30
0.0
 11
1.83041529
 21
-5.60237021
 31
0.0
  0
ENDBLK
  5
128
100
AcDbEntity
100
AcDbBlockEnd
  0
BLOCK
  5
129
100
AcDbEntity
  8
detail
100
AcDbBlockBegin
  2
*D5
 70
     1
 10
0.0
 20
0.0
 30
0.0
  3
*D5
  1

  4
Cadwork dimension
  0
TEXT
  5
12A
100
AcDbEntity
  8
detail
 62
   160
370
    18
100
AcDbText
 10
1.84208319
 20
-5.60237021
 30
0.0
 40
0.0016
  1
var.
  7
FRUTIGER_55_ROMAN
 50
0.0
 41
0.94
 51
0.0
100
AcDbText
  0
LINE
  5
12B
100
AcDbEntity
  8
detail
 62
   160
370
    -2
100
AcDbLine
 10
1.83906726
 20
-5.60537021
 30
0.0
 11
1.83906726
 21
-5.58177923
 31
0.0
  0
LINE
  5
12C
100
AcDbEntity
  8
detail
 62
   160
370
    -2
100
AcDbLine
 10
1.84741529
 20
-5.60537021
 30
0.0
 11
1.84741529
 21
-5.58978499
 31
0.0
  0
LINE
  5
12D
100
AcDbEntity
  8
detail
 62
   160
370
    -2
100
AcDbLine
 10
1.83706726
 20
-5.60337021
 30
0.0
 11
1.84941529
 21
-5.60337021
 31
0.0
  0
LINE
  5
12E
100
AcDbEntity
  8
detail
 62
   160
370
    -2
100
AcDbLine
 10
1.83806726
 20
-5.60437021
 30
0.0
 11
1.84006726
 21
-5.60237021
 31
0.0
  0
LINE
  5
12F
100
AcDbEntity
  8
detail
 62
   160
370
    -2
100
AcDbLine
 10
1.84641529
 20
-5.60437021
 30
0.0
 11
1.84841529
 21
-5.60237021
 31
0.0
  0
ENDBLK
  5
130
100
AcDbEntity
100
AcDbBlockEnd
  0
BLOCK
  5
131
100
AcDbEntity
  8
detail
100
AcDbBlockBegin
  2
*D6
 70
     1
 10
0.0
 20
0.0
 30
0.0
  3
*D6
  1

  4
Cadwork dimension
  0
TEXT
  5
132
100
AcDbEntity
  8
detail
 62
   160
370
    18
100
AcDbText
 10
1.83295652
 20
-5.60239391
 30
0.0
 40
0.0016
  1
var.
  7
FRUTIGER_55_ROMAN
 50
0.0
 41
0.94
 51
0.0
100
AcDbText
  0
LINE
  5
133
100
AcDbEntity
  8
detail
 62
   160
370
    -2
100
AcDbLine
 10
1.82941529
 20
-5.60537021
 30
0.0
 11
1.82941529
 21
-5.58978499
 31
0.0
  0
LINE
  5
134
100
AcDbEntity
  8
detail
 62
   160
370
    -2
100
AcDbLine
 10
1.83906726
 20
-5.60537021
 30
0.0
 11
1.83906726
 21
-5.58177923
 31
0.0
  0
LINE
  5
135
100
AcDbEntity
  8
detail
 62
   160
370
    -2
100
AcDbLine
 10
1.82741529
 20
-5.60337021
 30
0.0
 11
1.84106726
 21
-5.60337021
 31
0.0
  0
LINE
  5
136
100
AcDbEntity
  8
detail
 62
   160
370
    -2
100
AcDbLine
 10
1.82841529
 20
-5.60437021
 30
0.0
 11
1.83041529
 21
-5.60237021
 31
0.0
  0
LINE
  5
137
100
AcDbEntity
  8
detail
 62
   160
370
    -2
100
AcDbLine
 10
1.83806726
 20
-5.60437021
 30
0.0
 11
1.84006726
 21
-5.60237021
 31
0.0
  0
ENDBLK
  5
138
100
AcDbEntity
100
AcDbBlockEnd
  0
BLOCK
  5
139
100
AcDbEntity
  8
detail
100
AcDbBlockBegin
  2
*D7
 70
     1
 10
0.0
 20
0.0
 30
0.0
  3
*D7
  1

  4
Cadwork dimension
  0
TEXT
  5
13A
100
AcDbEntity
  8
detail
 62
   160
370
    18
100
AcDbText
 10
1.80560267
 20
-5.56414122
 30
0.0
 40
0.0016
  1
var.
  7
FRUTIGER_55_ROMAN
 50
89.9999975
 41
0.94
 51
0.0
100
AcDbText
  0
LINE
  5
13B
100
AcDbEntity
  8
detail
 62
   160
370
    -2
100
AcDbLine
 10
1.80460267
 20
-5.56023166
 30
0.0
 11
1.82761878
 21
-5.56023166
 31
0.0
  0
LINE
  5
13C
100
AcDbEntity
  8
detail
 62
   160
370
    -2
100
AcDbLine
 10
1.80460267
 20
-5.56474387
 30
0.0
 11
1.82761878
 21
-5.56474387
 31
0.0
  0
LINE
  5
13D
100
AcDbEntity
  8
detail
 62
   160
370
    -2
100
AcDbLine
 10
1.80660267
 20
-5.55823166
 30
0.0
 11
1.80660267
 21
-5.56674387
 31
0.0
  0
LINE
  5
13E
100
AcDbEntity
  8
detail
 62
   160
370
    -2
100
AcDbLine
 10
1.80560267
 20
-5.55923166
 30
0.0
 11
1.80760267
 21
-5.56123166
 31
0.0
  0
LINE
  5
13F
100
AcDbEntity
  8
detail
 62
   160
370
    -2
100
AcDbLine
 10
1.80560267
 20
-5.56374387
 30
0.0
 11
1.80760267
 21
-5.56574387
 31
0.0
  0
ENDBLK
  5
140
100
AcDbEntity
100
AcDbBlockEnd
  0
BLOCK
  5
141
100
AcDbEntity
  8
detail
100
AcDbBlockBegin
  2
*D8
 70
     1
 10
0.0
 20
0.0
 30
0.0
  3
*D8
  1

  4
Cadwork dimension
  0
TEXT
  5
142
100
AcDbEntity
  8
detail
 62
   160
370
    18
100
AcDbText
 10
1.80560267
 20
-5.57929221
 30
0.0
 40
0.0016
  1
100
  7
FRUTIGER_55_ROMAN
 50
89.9999975
 41
0.94
 51
0.0
100
AcDbText
  0
LINE
  5
143
100
AcDbEntity
  8
detail
 62
   160
370
    -2
100
AcDbLine
 10
1.80460267
 20
-5.57327602
 30
0.0
 11
1.82761878
 21
-5.57327602
 31
0.0
  0
LINE
  5
144
100
AcDbEntity
  8
detail
 62
   160
370
    -2
100
AcDbLine
 10
1.80460267
 20
-5.5832967
 30
0.0
 11
1.82761878
 21
-5.5832967
 31
0.0
  0
LINE
  5
145
100
AcDbEntity
  8
detail
 62
   160
370
    -2
100
AcDbLine
 10
1.80660267
 20
-5.57127602
 30
0.0
 11
1.80660267
 21
-5.5852967
 31
0.0
  0
LINE
  5
146
100
AcDbEntity
  8
detail
 62
   160
370
    -2
100
AcDbLine
 10
1.80560267
 20
-5.57227602
 30
0.0
 11
1.80760267
 21
-5.57427602
 31
0.0
  0
LINE
  5
147
100
AcDbEntity
  8
detail
 62
   160
370
    -2
100
AcDbLine
 10
1.80560267
 20
-5.5822967
 30
0.0
 11
1.80760267
 21
-5.5842967
 31
0.0
  0
ENDBLK
  5
148
100
AcDbEntity
100
AcDbBlockEnd
  0
BLOCK
  5
149
100
AcDbEntity
  8
detail
100
AcDbBlockBegin
  2
*D9
 70
     1
 10
0.0
 20
0.0
 30
0.0
  3
*D9
  1

  4
Cadwork dimension
  0
TEXT
  5
14A
100
AcDbEntity
  8
detail
 62
   160
370
    18
100
AcDbText
 10
1.80560267
 20
-5.56995111
 30
0.0
 40
0.0016
  1
84
  7
FRUTIGER_55_ROMAN
 50
89.9999975
 41
0.94
 51
0.0
100
AcDbText
  0
LINE
  5
14B
100
AcDbEntity
  8
detail
 62
   160
370
    -2
100
AcDbLine
 10
1.80460267
 20
-5.56474387
 30
0.0
 11
1.82761878
 21
-5.56474387
 31
0.0
  0
LINE
  5
14C
100
AcDbEntity
  8
detail
 62
   160
370
    -2
100
AcDbLine
 10
1.80460267
 20
-5.57327602
 30
0.0
 11
1.81160267
 21
-5.57327602
 31
0.0
  0
LINE
  5
14D
100
AcDbEntity
  8
detail
 62
   160
370
    -2
100
AcDbLine
 10
1.80660267
 20
-5.56274387
 30
0.0
 11
1.80660267
 21
-5.57527602
 31
0.0
  0
LINE
  5
14E
100
AcDbEntity
  8
detail
 62
   160
370
    -2
100
AcDbLine
 10
1.80560267
 20
-5.56374387
 30
0.0
 11
1.80760267
 21
-5.56574387
 31
0.0
  0
LINE
  5
14F
100
AcDbEntity
  8
detail
 62
   160
370
    -2
100
AcDbLine
 10
1.80560267
 20
-5.57227602
 30
0.0
 11
1.80760267
 21
-5.57427602
 31
0.0
  0
ENDBLK
  5
150
100
AcDbEntity
100
AcDbBlockEnd
  0
ENDSEC
  0
SECTION
  2
ENTITIES
  0
INSERT
  5
151
100
AcDbEntity
  8
detail
 62
     0
370
     5
100
AcDbBlockReference
  2
*X1
 10
0.0
 20
0.0
 30
0.0
  0
INSERT
  5
152
100
AcDbEntity
  8
detail
 62
     0
370
     5
100
AcDbBlockReference
  2
*X2
 10
0.0
 20
0.0
 30
0.0
  0
INSERT
  5
153
100
AcDbEntity
  8
detail
 62
     0
370
     5
100
AcDbBlockReference
  2
*X3
 10
0.0
 20
0.0
 30
0.0
  0
INSERT
  5
154
100
AcDbEntity
  8
detail
 62
     0
370
     5
100
AcDbBlockReference
  2
*X4
 10
0.0
 20
0.0
 30
0.0
  0
LWPOLYLINE
  5
155
100
AcDbEntity
  8
detail
 62
   250
  6
CONTINUOUS
370
     5
100
AcDbPolyline
 90
        5
 70
     1
 43
0.0
 10
1.83941529
 20
-5.53023166
 10
1.83941529
 20
-5.55423166
 10
1.85041529
 20
-5.55423166
 10
1.85041529
 20
-5.55423166
 10
1.85291529
 20
-5.55423166
  0
LINE
  5
156
100
AcDbEntity
  8
detail
 62
    16
  6
CONTINUOUS
370
     5
100
AcDbLine
 10
1.86941529
 20
-5.57860516
 30
0.0
 11
1.85741529
 21
-5.57860516
 31
0.0
  0
3DFACE
  5
157
100
AcDbEntity
  8
detail
 62
    16
  6
CONTINUOUS
370
     5
100
AcDbFace
 70
     4
 10
1.86991529
 20
-5.53023166
 30
0.25
 11
1.86991529
 21
-5.52623166
 31
0.25
 12
1.94329878
 22
-5.52623166
 32
0.25
 13
1.94329878
 23
-5.53023166
 33
0.25
  0
3DFACE
  5
158
102
{ACAD_REACTORS
330
159
102
}
100
AcDbEntity
  8
detail
 62
    16
  6
CONTINUOUS
370
     5
100
AcDbFace
 70
     0
 10
1.86991529
 20
-5.51823166
 30
0.25
 11
1.86791529
 21
-5.51823166
 31
0.25
 12
1.86791529
 22
-5.53023166
 32
0.25
 13
1.86991529
 23
-5.53023166
 33
0.25
  0
HATCH
  5
159
100
AcDbEntity
  8
detail
 62
    16
  6
CONTINUOUS
100
AcDbHatch
 10
0.0
 20
0.0
 30
0.0
210
0.0
220
0.0
230
1.0
  2
ANSI31
 70
     0
 71
     1
 91
        1
 92
        7
 72
     0
 73
     1
 93
        4
 10
1.86991529
 20
-5.51823166
 10
1.86791529
 20
-5.51823166
 10
1.86791529
 20
-5.53023166
 10
1.86991529
 20
-5.53023166
 97
        1
330
158
 75
     0
 76
     2
 52
135.0
 41
0.0003937
 77
     0
 78
     1
 53
0.0
 43
0.0
 44
0.000625
 45
0.0
 46
0.00125
 79
     0
 47
0.775229
 98
        1
 10
0.0
 20
0.0
  0
LWPOLYLINE
  5
15A
100
AcDbEntity
  8
detail
 62
    16
  6
CONTINUOUS
370
     5
100
AcDbPolyline
 90
        5
 70
     0
 43
0.0
 38
0.25
 10
1.85522514
 20
-5.58973166
 10
1.85627022
 20
-5.58973166
 10
1.85627022
 20
-5.59054545
 10
1.85522514
 20
-5.59054545
 10
1.85522514
 20
-5.58973166
  0
LWPOLYLINE
  5
15B
100
AcDbEntity
  8
detail
 62
    16
  6
CONTINUOUS
370
     5
100
AcDbPolyline
 90
        5
 70
     0
 43
0.0
 38
0.25
 10
1.85677022
 20
-5.58973166
 10
1.85781529
 20
-5.58973166
 10
1.85781529
 20
-5.59054545
 10
1.85677022
 20
-5.59054545
 10
1.85677022
 20
-5.58973166
  0
LWPOLYLINE
  5
15C
100
AcDbEntity
  8
detail
 62
    16
  6
CONTINUOUS
370
     5
100
AcDbPolyline
 90
        5
 70
     0
 43
0.0
 38
0.25
 10
1.85472514
 20
-5.58933166
 10
1.85831529
 20
-5.58933166
 10
1.85831529
 20
-5.58973166
 10
1.85472514
 20
-5.58973166
 10
1.85472514
 20
-5.58933166
  0
LWPOLYLINE
  5
15D
100
AcDbEntity
  8
detail
 62
    16
  6
CONTINUOUS
370
     5
100
AcDbPolyline
 90
       10
 70
     1
 43
0.0
 10
1.85841529
 20
-5.57660516
 10
1.85841529
 20
-5.58473166
 10
1.85363042
 20
-5.58473166
 10
1.85339948
 20
-5.58513166
 10
1.85261529
 20
-5.58513166
 10
1.85261529
 20
-5.58518166
 10
1.85261529
 20
-5.58773166
 10
1.85246529
 20
-5.58773166
 10
1.85141529
 20
-5.58745031
 10
1.85141529
 20
-5.57660516
  0
LWPOLYLINE
  5
15E
100
AcDbEntity
  8
detail
 62
    16
  6
CONTINUOUS
370
     5
100
AcDbPolyline
 90
        5
 70
     1
 43
0.0
 10
1.85446529
 20
-5.58593166
 10
1.85446529
 20
-5.58473166
 10
1.85407505
 20
-5.58473166
 10
1.85407505
 20
-5.58643834
 10
1.85446529
 20
-5.58643834
  0
LWPOLYLINE
  5
15F
100
AcDbEntity
  8
detail
 62
    16
  6
CONTINUOUS
370
     5
100
AcDbPolyline
 90
       24
 70
     1
 43
0.0
 10
1.85446529
 20
-5.58593166
 10
1.85669529
 20
-5.58593166
 10
1.85669529
 20
-5.58715166
 10
1.85679529
 20
-5.58715166
 10
1.85833529
 20
-5.58715166
 10
1.85833529
 20
-5.58593166
 10
1.85871529
 20
-5.58593166
 10
1.85871529
 20
-5.58392613
 10
1.86011529
 20
-5.58407327
 10
1.86011529
 20
-5.58933166
 10
1.86001529
 20
-5.58933166
 10
1.86001529
 20
-5.59063166
 10
1.85988049
 20
-5.59067814
 10
1.85856529
 20
-5.59113166
 10
1.85856529
 20
-5.58933166
 10
1.85431116
 20
-5.58933166
 10
1.85431116
 20
-5.59113166
 10
1.85416529
 20
-5.59113166
 10
1.85226529
 20
-5.59062255
 10
1.85226529
 20
-5.58855223
 10
1.85271529
 20
-5.58843166
 10
1.85271529
 20
-5.58713166
 10
1.85446529
 20
-5.58713166
 10
1.85446529
 20
-5.58597166
  0
LWPOLYLINE
  5
160
100
AcDbEntity
  8
detail
 62
    16
  6
CONTINUOUS
370
     5
100
AcDbPolyline
 90
        5
 70
     1
 43
0.0
 10
1.85870931
 20
-5.58457963
 10
1.85841529
 20
-5.58457963
 10
1.85841529
 20
-5.58392613
 10
1.85871529
 20
-5.58392613
 10
1.8587103
 20
-5.58458426
  0
LINE
  5
161
100
AcDbEntity
  8
detail
 62
    16
  6
CONTINUOUS
370
     5
100
AcDbLine
 10
1.86941529
 20
-5.57860516
 30
0.0
 11
1.85841529
 21
-5.57860516
 31
0.0
  0
LWPOLYLINE
  5
162
102
{ACAD_REACTORS
330
163
102
}
100
AcDbEntity
  8
detail
 62
     7
  6
CONTINUOUS
370
    -3
100
AcDbPolyline
 90
        6
 70
     1
 43
0.0
 10
1.82941529
 20
-5.55423166
 10
1.82441529
 20
-5.55423166
 10
1.82441529
 20
-5.58573166
 10
1.82941529
 20
-5.58573166
 10
1.82941529
 20
-5.56023166
 10
1.82941529
 20
-5.56023166
  0
HATCH
  5
163
100
AcDbEntity
  8
detail
 62
    16
  6
CONTINUOUS
100
AcDbHatch
 10
0.0
 20
0.0
 30
0.0
210
0.0
220
0.0
230
1.0
  2
SOLID
 70
     1
 71
     1
 91
        1
 92
        7
 72
     0
 73
     1
 93
        5
 10
1.82941529
 20
-5.55423166
 10
1.82441529
 20
-5.55423166
 10
1.82441529
 20
-5.58573166
 10
1.82941529
 20
-5.58573166
 10
1.82941529
 20
-5.56023166
 97
        1
330
162
 75
     0
 76
     2
 47
0.775229
 98
        1
 10
0.0
 20
0.0
  0
LWPOLYLINE
  5
164
102
{ACAD_REACTORS
330
165
102
}
100
AcDbEntity
  8
detail
 62
     7
  6
CONTINUOUS
370
    -3
100
AcDbPolyline
 90
        4
 70
     1
 43
0.0
 10
1.85641529
 20
-5.55423166
 10
1.86791529
 20
-5.55423166
 10
1.86791529
 20
-5.57660516
 10
1.85641529
 20
-5.57660516
  0
HATCH
  5
165
100
AcDbEntity
  8
detail
 62
    16
  6
CONTINUOUS
100
AcDbHatch
 10
0.0
 20
0.0
 30
0.0
210
0.0
220
0.0
230
1.0
  2
SOLID
 70
     1
 71
     1
 91
        1
 92
        7
 72
     0
 73
     1
 93
        4
 10
1.85641529
 20
-5.55423166
 10
1.86791529
 20
-5.55423166
 10
1.86791529
 20
-5.57660516
 10
1.85641529
 20
-5.57660516
 97
        1
330
164
 75
     0
 76
     2
 47
0.775229
 98
        1
 10
0.0
 20
0.0
  0
LWPOLYLINE
  5
166
100
AcDbEntity
  8
detail
 62
    16
  6
CONTINUOUS
370
     5
100
AcDbPolyline
 90
        3
 70
     0
 43
0.0
 10
1.82941529
 20
-5.58573166
 10
1.82941529
 20
-5.58673166
 10
1.82241529
 20
-5.58673166
  0
LINE
  5
167
100
AcDbEntity
  8
detail
 62
    16
  6
CONTINUOUS
370
     5
100
AcDbLine
 10
1.84295844
 20
-5.57301389
 30
0.0
 11
1.84357616
 21
-5.57235936
 31
0.0
  0
LINE
  5
168
100
AcDbEntity
  8
detail
 62
    16
  6
CONTINUOUS
370
     5
100
AcDbLine
 10
1.8380299
 20
-5.56951651
 30
0.0
 11
1.84288195
 21
-5.57408763
 31
0.0
  0
LINE
  5
169
100
AcDbEntity
  8
detail
 62
    16
  6
CONTINUOUS
370
     5
100
AcDbLine
 10
1.83908431
 20
-5.56939703
 30
0.0
 11
1.84294203
 21
-5.57303128
 31
0.0
  0
LINE
  5
16A
100
AcDbEntity
  8
detail
 62
    16
  6
CENTER
370
     5
100
AcDbLine
 10
1.83806726
 20
-5.57327602
 30
0.0
 11
1.84006726
 21
-5.57327602
 31
0.0
  0
LINE
  5
16B
100
AcDbEntity
  8
detail
 62
    16
  6
CENTER
370
     5
100
AcDbLine
 10
1.83906726
 20
-5.57427602
 30
0.0
 11
1.83906726
 21
-5.57227602
 31
0.0
  0
LINE
  5
16C
100
AcDbEntity
  8
detail
 62
    16
  6
CONTINUOUS
370
     5
100
AcDbLine
 10
1.84248081
 20
-5.57829246
 30
0.0
 11
1.84248081
 21
-5.57717755
 31
0.0
  0
LINE
  5
16D
100
AcDbEntity
  8
detail
 62
    16
  6
CONTINUOUS
370
     5
100
AcDbLine
 10
1.83093585
 20
-5.56474387
 30
0.0
 11
1.83126399
 21
-5.5647965
 31
0.0
  0
LINE
  5
16E
100
AcDbEntity
  8
detail
 62
    16
  6
CONTINUOUS
370
     5
100
AcDbLine
 10
1.84548081
 20
-5.57805294
 30
0.0
 11
1.84548081
 21
-5.57850294
 31
0.0
  0
LINE
  5
16F
100
AcDbEntity
  8
detail
 62
    16
  6
CONTINUOUS
370
     5
100
AcDbLine
 10
1.83948081
 20
-5.57829246
 30
0.0
 11
1.83948081
 21
-5.57717755
 31
0.0
  0
LINE
  5
170
100
AcDbEntity
  8
detail
 62
    16
  6
CONTINUOUS
370
     5
100
AcDbLine
 10
1.83902878
 20
-5.57779105
 30
0.0
 11
1.84000076
 21
-5.57779105
 31
0.0
  0
LINE
  5
171
100
AcDbEntity
  8
detail
 62
    16
  6
CONTINUOUS
370
     5
100
AcDbLine
 10
1.84202878
 20
-5.57779105
 30
0.0
 11
1.84300076
 21
-5.57779105
 31
0.0
  0
LINE
  5
172
100
AcDbEntity
  8
detail
 62
    16
  6
CONTINUOUS
370
     5
100
AcDbLine
 10
1.83129992
 20
-5.58253464
 30
0.0
 11
1.83132338
 21
-5.58248905
 31
0.0
  0
LINE
  5
173
100
AcDbEntity
  8
detail
 62
    16
  6
CONTINUOUS
370
     5
100
AcDbLine
 10
1.83132338
 20
-5.58248905
 30
0.0
 11
1.83130682
 21
-5.58244053
 31
0.0
  0
LINE
  5
174
100
AcDbEntity
  8
detail
 62
    16
  6
CONTINUOUS
370
     5
100
AcDbLine
 10
1.83132645
 20
-5.582542
 30
0.0
 11
1.8313526
 21
-5.58249119
 31
0.0
  0
LINE
  5
175
100
AcDbEntity
  8
detail
 62
    16
  6
CONTINUOUS
370
     5
100
AcDbLine
 10
1.8313526
 20
-5.58249119
 30
0.0
 11
1.83133415
 21
-5.58243711
 31
0.0
  0
LINE
  5
176
100
AcDbEntity
  8
detail
 62
    16
  6
CONTINUOUS
370
     5
100
AcDbLine
 10
1.83131195
 20
-5.58363882
 30
0.0
 11
1.83133639
 21
-5.58368388
 31
0.0
  0
LINE
  5
177
100
AcDbEntity
  8
detail
 62
    16
  6
CONTINUOUS
370
     5
100
AcDbLine
 10
1.83133639
 20
-5.58368388
 30
0.0
 11
1.83132089
 21
-5.58373275
 31
0.0
  0
LINE
  5
178
100
AcDbEntity
  8
detail
 62
    16
  6
CONTINUOUS
370
     5
100
AcDbLine
 10
1.83136556
 20
-5.58368111
 30
0.0
 11
1.83134828
 21
-5.58373558
 31
0.0
  0
LINE
  5
179
100
AcDbEntity
  8
detail
 62
    16
  6
CONTINUOUS
370
     5
100
AcDbLine
 10
1.83133831
 20
-5.58363088
 30
0.0
 11
1.83136556
 21
-5.58368111
 31
0.0
  0
LINE
  5
17A
100
AcDbEntity
  8
detail
 62
    16
  6
CONTINUOUS
370
     5
100
AcDbLine
 10
1.83256989
 20
-5.56824081
 30
0.0
 11
1.832588
 21
-5.56814038
 31
0.0
  0
LINE
  5
17B
100
AcDbEntity
  8
detail
 62
    16
  6
CONTINUOUS
370
     5
100
AcDbLine
 10
1.83252531
 20
-5.56854114
 30
0.0
 11
1.83259004
 21
-5.56847713
 31
0.0
  0
LINE
  5
17C
100
AcDbEntity
  8
detail
 62
    16
  6
CONTINUOUS
370
     5
100
AcDbLine
 10
1.83305959
 20
-5.56819997
 30
0.0
 11
1.83302799
 21
-5.56815141
 31
0.0
  0
LINE
  5
17D
100
AcDbEntity
  8
detail
 62
    16
  6
CONTINUOUS
370
     5
100
AcDbLine
 10
1.83150466
 20
-5.58132154
 30
0.0
 11
1.83158116
 21
-5.58127435
 31
0.0
  0
LINE
  5
17E
100
AcDbEntity
  8
detail
 62
    16
  6
CONTINUOUS
370
     5
100
AcDbLine
 10
1.83159715
 20
-5.58124689
 30
0.0
 11
1.83161376
 21
-5.58078931
 31
0.0
  0
LINE
  5
17F
100
AcDbEntity
  8
detail
 62
    16
  6
CONTINUOUS
370
     5
100
AcDbLine
 10
1.83190813
 20
-5.58085281
 30
0.0
 11
1.83191013
 21
-5.58080028
 31
0.0
  0
LINE
  5
180
100
AcDbEntity
  8
detail
 62
    16
  6
CONTINUOUS
370
     5
100
AcDbLine
 10
1.83197383
 20
-5.5808494
 30
0.0
 11
1.83196314
 21
-5.58077453
 31
0.0
  0
LINE
  5
181
100
AcDbEntity
  8
detail
 62
    16
  6
CONTINUOUS
370
     5
100
AcDbLine
 10
1.83194714
 20
-5.58085319
 30
0.0
 11
1.83193563
 21
-5.58077427
 31
0.0
  0
LINE
  5
182
100
AcDbEntity
  8
detail
 62
    16
  6
CONTINUOUS
370
     5
100
AcDbLine
 10
1.83193507
 20
-5.58085398
 30
0.0
 11
1.83193623
 21
-5.5807791
 31
0.0
  0
LINE
  5
183
100
AcDbEntity
  8
detail
 62
    16
  6
CONTINUOUS
370
     5
100
AcDbLine
 10
1.83168178
 20
-5.58117197
 30
0.0
 11
1.83166766
 21
-5.58080028
 31
0.0
  0
LINE
  5
184
100
AcDbEntity
  8
detail
 62
    16
  6
CONTINUOUS
370
     5
100
AcDbLine
 10
1.83165484
 20
-5.581173
 30
0.0
 11
1.8316405
 21
-5.58079579
 31
0.0
  0
LINE
  5
185
100
AcDbEntity
  8
detail
 62
    16
  6
CONTINUOUS
370
     5
100
AcDbLine
 10
1.83162409
 20
-5.58124787
 30
0.0
 11
1.8316407
 21
-5.58079029
 31
0.0
  0
LINE
  5
186
100
AcDbEntity
  8
detail
 62
    16
  6
CONTINUOUS
370
     5
100
AcDbLine
 10
1.83151882
 20
-5.58134449
 30
0.0
 11
1.83159532
 21
-5.5812973
 31
0.0
  0
LINE
  5
187
100
AcDbEntity
  8
detail
 62
    16
  6
CONTINUOUS
370
     5
100
AcDbLine
 10
1.83161688
 20
-5.5849333
 30
0.0
 11
1.8316261
 21
-5.58441187
 31
0.0
  0
LINE
  5
188
100
AcDbEntity
  8
detail
 62
    16
  6
CONTINUOUS
370
     5
100
AcDbLine
 10
1.83158992
 20
-5.58493283
 30
0.0
 11
1.83159914
 21
-5.58441139
 31
0.0
  0
LINE
  5
189
100
AcDbEntity
  8
detail
 62
    16
  6
CONTINUOUS
370
     5
100
AcDbLine
 10
1.83170528
 20
-5.58120282
 30
0.0
 11
1.83184295
 21
-5.58124643
 31
0.0
  0
LINE
  5
18A
100
AcDbEntity
  8
detail
 62
    16
  6
CONTINUOUS
370
     5
100
AcDbLine
 10
1.83169714
 20
-5.58122853
 30
0.0
 11
1.83183481
 21
-5.58127213
 31
0.0
  0
LINE
  5
18B
100
AcDbEntity
  8
detail
 62
    16
  6
CONTINUOUS
370
     5
100
AcDbLine
 10
1.83179591
 20
-5.58497785
 30
0.0
 11
1.83173754
 21
-5.58494681
 31
0.0
  0
LINE
  5
18C
100
AcDbEntity
  8
detail
 62
    16
  6
CONTINUOUS
370
     5
100
AcDbLine
 10
1.83181177
 20
-5.58495409
 30
0.0
 11
1.8317534
 21
-5.58492305
 31
0.0
  0
LINE
  5
18D
100
AcDbEntity
  8
detail
 62
    16
  6
CONTINUOUS
370
     5
100
AcDbLine
 10
1.83208329
 20
-5.58442407
 30
0.0
 11
1.83207867
 21
-5.58477773
 31
0.0
  0
LINE
  5
18E
100
AcDbEntity
  8
detail
 62
    16
  6
CONTINUOUS
370
     5
100
AcDbLine
 10
1.83186689
 20
-5.58492416
 30
0.0
 11
1.8318619
 21
-5.58493799
 31
0.0
  0
LINE
  5
18F
100
AcDbEntity
  8
detail
 62
    16
  6
CONTINUOUS
370
     5
100
AcDbLine
 10
1.83182763
 20
-5.58493033
 30
0.0
 11
1.83176149
 21
-5.58489734
 31
0.0
  0
LINE
  5
190
100
AcDbEntity
  8
detail
 62
    16
  6
CONTINUOUS
370
     5
100
AcDbLine
 10
1.83205633
 20
-5.58442372
 30
0.0
 11
1.83205019
 21
-5.58477999
 31
0.0
  0
LINE
  5
191
100
AcDbEntity
  8
detail
 62
    16
  6
CONTINUOUS
370
     5
100
AcDbLine
 10
1.83205019
 20
-5.58477999
 30
0.0
 11
1.83204377
 21
-5.58442365
 31
0.0
  0
LINE
  5
192
100
AcDbEntity
  8
detail
 62
    16
  6
CONTINUOUS
370
     5
100
AcDbLine
 10
1.83202171
 20
-5.58478225
 30
0.0
 11
1.83201681
 21
-5.58442401
 31
0.0
  0
LINE
  5
193
100
AcDbEntity
  8
detail
 62
    16
  6
CONTINUOUS
370
     5
100
AcDbLine
 10
1.83177728
 20
-5.58487732
 30
0.0
 11
1.83186689
 21
-5.58492416
 31
0.0
  0
LINE
  5
194
100
AcDbEntity
  8
detail
 62
    16
  6
CONTINUOUS
370
     5
100
AcDbLine
 10
1.83281529
 20
-5.58033469
 30
0.0
 11
1.83269878
 21
-5.58033469
 31
0.0
  0
LINE
  5
195
100
AcDbEntity
  8
detail
 62
    16
  6
CONTINUOUS
370
     5
100
AcDbLine
 10
1.83445496
 20
-5.56974078
 30
0.0
 11
1.84410594
 21
-5.56974078
 31
0.0
  0
LINE
  5
196
100
AcDbEntity
  8
detail
 62
    16
  6
CONTINUOUS
370
     5
100
AcDbLine
 10
1.84533304
 20
-5.57135983
 30
0.0
 11
1.84533304
 21
-5.56725587
 31
0.0
  0
LINE
  5
197
100
AcDbEntity
  8
detail
 62
    16
  6
CONTINUOUS
370
     5
100
AcDbLine
 10
1.84533304
 20
-5.57838132
 30
0.0
 11
1.84533304
 21
-5.57519221
 31
0.0
  0
LINE
  5
198
100
AcDbEntity
  8
detail
 62
    16
  6
CONTINUOUS
370
     5
100
AcDbLine
 10
1.83445496
 20
-5.56920189
 30
0.0
 11
1.84410594
 21
-5.56920189
 31
0.0
  0
LINE
  5
199
100
AcDbEntity
  8
detail
 62
    16
  6
CONTINUOUS
370
     5
100
AcDbLine
 10
1.83071529
 20
-5.56499246
 30
0.0
 11
1.83071529
 21
-5.5827511
 31
0.0
  0
LINE
  5
19A
100
AcDbEntity
  8
detail
 62
    16
  6
CONTINUOUS
370
     5
100
AcDbLine
 10
1.83078324
 20
-5.58327602
 30
0.0
 11
1.83128547
 21
-5.58327602
 31
0.0
  0
LINE
  5
19B
100
AcDbEntity
  8
detail
 62
    16
  6
CONTINUOUS
370
     5
100
AcDbLine
 10
1.83445496
 20
-5.57627985
 30
0.0
 11
1.84410594
 21
-5.57627985
 31
0.0
  0
LINE
  5
19C
100
AcDbEntity
  8
detail
 62
    16
  6
CONTINUOUS
370
     5
100
AcDbLine
 10
1.83130898
 20
-5.56674386
 30
0.0
 11
1.83130898
 21
-5.5684606
 31
0.0
  0
LINE
  5
19D
100
AcDbEntity
  8
detail
 62
    16
  6
CONTINUOUS
370
     5
100
AcDbLine
 10
1.83131204
 20
-5.57053341
 30
0.0
 11
1.83134114
 21
-5.5704912
 31
0.0
  0
LINE
  5
19E
100
AcDbEntity
  8
detail
 62
    16
  6
CONTINUOUS
370
     5
100
AcDbLine
 10
1.83134114
 20
-5.5704912
 30
0.0
 11
1.83133092
 21
-5.57044096
 31
0.0
  0
LINE
  5
19F
100
AcDbEntity
  8
detail
 62
    16
  6
CONTINUOUS
370
     5
100
AcDbLine
 10
1.83133741
 20
-5.57054411
 30
0.0
 11
1.83136985
 21
-5.57049706
 31
0.0
  0
LINE
  5
1A0
100
AcDbEntity
  8
detail
 62
    16
  6
CONTINUOUS
370
     5
100
AcDbLine
 10
1.83136985
 20
-5.57049706
 30
0.0
 11
1.83135846
 21
-5.57044107
 31
0.0
  0
LINE
  5
1A1
100
AcDbEntity
  8
detail
 62
    16
  6
CONTINUOUS
370
     5
100
AcDbLine
 10
1.8311827
 20
-5.57163006
 30
0.0
 11
1.83120118
 21
-5.57167788
 31
0.0
  0
LINE
  5
1A2
100
AcDbEntity
  8
detail
 62
    16
  6
CONTINUOUS
370
     5
100
AcDbLine
 10
1.83120118
 20
-5.57167788
 30
0.0
 11
1.83117955
 21
-5.57172437
 31
0.0
  0
LINE
  5
1A3
100
AcDbEntity
  8
detail
 62
    16
  6
CONTINUOUS
370
     5
100
AcDbLine
 10
1.83123046
 20
-5.57167886
 30
0.0
 11
1.83120635
 21
-5.57173067
 31
0.0
  0
LINE
  5
1A4
100
AcDbEntity
  8
detail
 62
    16
  6
CONTINUOUS
370
     5
100
AcDbLine
 10
1.83120986
 20
-5.57162556
 30
0.0
 11
1.83123046
 21
-5.57167886
 31
0.0
  0
LINE
  5
1A5
100
AcDbEntity
  8
detail
 62
    16
  6
CONTINUOUS
370
     5
100
AcDbLine
 10
1.8316703
 20
-5.56935648
 30
0.0
 11
1.83175221
 21
-5.56931947
 31
0.0
  0
LINE
  5
1A6
100
AcDbEntity
  8
detail
 62
    16
  6
CONTINUOUS
370
     5
100
AcDbLine
 10
1.83177158
 20
-5.56929428
 30
0.0
 11
1.8318466
 21
-5.56884258
 31
0.0
  0
LINE
  5
1A7
100
AcDbEntity
  8
detail
 62
    16
  6
CONTINUOUS
370
     5
100
AcDbLine
 10
1.83213043
 20
-5.56894323
 30
0.0
 11
1.83213913
 21
-5.56889138
 31
0.0
  0
LINE
  5
1A8
100
AcDbEntity
  8
detail
 62
    16
  6
CONTINUOUS
370
     5
100
AcDbLine
 10
1.83219602
 20
-5.56894825
 30
0.0
 11
1.832195
 21
-5.56887263
 31
0.0
  0
LINE
  5
1A9
100
AcDbEntity
  8
detail
 62
    16
  6
CONTINUOUS
370
     5
100
AcDbLine
 10
1.83216906
 20
-5.56894859
 30
0.0
 11
1.83216774
 21
-5.56886884
 31
0.0
  0
LINE
  5
1AA
100
AcDbEntity
  8
detail
 62
    16
  6
CONTINUOUS
370
     5
100
AcDbLine
 10
1.83215699
 20
-5.56894783
 30
0.0
 11
1.83216772
 21
-5.56887371
 31
0.0
  0
LINE
  5
1AB
100
AcDbEntity
  8
detail
 62
    16
  6
CONTINUOUS
370
     5
100
AcDbLine
 10
1.8318651
 20
-5.56923081
 30
0.0
 11
1.83189865
 21
-5.56886035
 31
0.0
  0
LINE
  5
1AC
100
AcDbEntity
  8
detail
 62
    16
  6
CONTINUOUS
370
     5
100
AcDbLine
 10
1.83183825
 20
-5.56922837
 30
0.0
 11
1.83187229
 21
-5.56885244
 31
0.0
  0
LINE
  5
1AD
100
AcDbEntity
  8
detail
 62
    16
  6
CONTINUOUS
370
     5
100
AcDbLine
 10
1.83179817
 20
-5.56929869
 30
0.0
 11
1.83187319
 21
-5.568847
 31
0.0
  0
LINE
  5
1AE
100
AcDbEntity
  8
detail
 62
    16
  6
CONTINUOUS
370
     5
100
AcDbLine
 10
1.83168141
 20
-5.56938105
 30
0.0
 11
1.83176331
 21
-5.56934403
 31
0.0
  0
LINE
  5
1AF
100
AcDbEntity
  8
detail
 62
    16
  6
CONTINUOUS
370
     5
100
AcDbLine
 10
1.83131951
 20
-5.57295292
 30
0.0
 11
1.83139536
 21
-5.57243695
 31
0.0
  0
LINE
  5
1B0
100
AcDbEntity
  8
detail
 62
    16
  6
CONTINUOUS
370
     5
100
AcDbLine
 10
1.83129283
 20
-5.572949
 30
0.0
 11
1.83136868
 21
-5.57243303
 31
0.0
  0
LINE
  5
1B1
100
AcDbEntity
  8
detail
 62
    16
  6
CONTINUOUS
370
     5
100
AcDbLine
 10
1.83188446
 20
-5.56926441
 30
0.0
 11
1.83201542
 21
-5.56932526
 31
0.0
  0
LINE
  5
1B2
100
AcDbEntity
  8
detail
 62
    16
  6
CONTINUOUS
370
     5
100
AcDbLine
 10
1.8318731
 20
-5.56928886
 30
0.0
 11
1.83200405
 21
-5.56934971
 31
0.0
  0
LINE
  5
1B3
100
AcDbEntity
  8
detail
 62
    16
  6
CONTINUOUS
370
     5
100
AcDbLine
 10
1.83149137
 20
-5.57302
 30
0.0
 11
1.83143744
 21
-5.57298175
 31
0.0
  0
LINE
  5
1B4
100
AcDbEntity
  8
detail
 62
    16
  6
CONTINUOUS
370
     5
100
AcDbLine
 10
1.83151014
 20
-5.57299847
 30
0.0
 11
1.83145621
 21
-5.57296022
 31
0.0
  0
LINE
  5
1B5
100
AcDbEntity
  8
detail
 62
    16
  6
CONTINUOUS
370
     5
100
AcDbLine
 10
1.83184723
 20
-5.57250754
 30
0.0
 11
1.8317974
 21
-5.5728577
 31
0.0
  0
LINE
  5
1B6
100
AcDbEntity
  8
detail
 62
    16
  6
CONTINUOUS
370
     5
100
AcDbLine
 10
1.83156863
 20
-5.57297584
 30
0.0
 11
1.83156192
 21
-5.57298892
 31
0.0
  0
LINE
  5
1B7
100
AcDbEntity
  8
detail
 62
    16
  6
CONTINUOUS
370
     5
100
AcDbLine
 10
1.83152891
 20
-5.57297693
 30
0.0
 11
1.83146753
 21
-5.57293575
 31
0.0
  0
LINE
  5
1B8
100
AcDbEntity
  8
detail
 62
    16
  6
CONTINUOUS
370
     5
100
AcDbLine
 10
1.83182054
 20
-5.57250375
 30
0.0
 11
1.83176887
 21
-5.5728563
 31
0.0
  0
LINE
  5
1B9
100
AcDbEntity
  8
detail
 62
    16
  6
CONTINUOUS
370
     5
100
AcDbLine
 10
1.83176887
 20
-5.5728563
 30
0.0
 11
1.83180809
 21
-5.57250207
 31
0.0
  0
LINE
  5
1BA
100
AcDbEntity
  8
detail
 62
    16
  6
CONTINUOUS
370
     5
100
AcDbLine
 10
1.83174034
 20
-5.5728549
 30
0.0
 11
1.83178131
 21
-5.57249898
 31
0.0
  0
LINE
  5
1BB
100
AcDbEntity
  8
detail
 62
    16
  6
CONTINUOUS
370
     5
100
AcDbLine
 10
1.83148575
 20
-5.57291791
 30
0.0
 11
1.83156863
 21
-5.57297584
 31
0.0
  0
LINE
  5
1BC
100
AcDbEntity
  8
detail
 62
    16
  6
CONTINUOUS
370
     5
100
AcDbLine
 10
1.83445496
 20
-5.5780605
 30
0.0
 11
1.84410594
 21
-5.5780605
 31
0.0
  0
LINE
  5
1BD
100
AcDbEntity
  8
detail
 62
    16
  6
CONTINUOUS
370
     5
100
AcDbLine
 10
1.83125981
 20
-5.56521058
 30
0.0
 11
1.83222163
 21
-5.56619011
 31
0.0
  0
LINE
  5
1BE
100
AcDbEntity
  8
detail
 62
    16
  6
CONTINUOUS
370
     5
100
AcDbLine
 10
1.83445496
 20
-5.57574096
 30
0.0
 11
1.84410594
 21
-5.57574096
 31
0.0
  0
LINE
  5
1BF
100
AcDbEntity
  8
detail
 62
    16
  6
CONTINUOUS
370
     5
100
AcDbLine
 10
1.83126399
 20
-5.5647965
 30
0.0
 11
1.8324307
 21
-5.56598431
 31
0.0
  0
LINE
  5
1C0
100
AcDbEntity
  8
detail
 62
    16
  6
CONTINUOUS
370
     5
100
AcDbLine
 10
1.83445496
 20
-5.57187183
 30
0.0
 11
1.84482104
 21
-5.57187183
 31
0.0
  0
LINE
  5
1C1
100
AcDbEntity
  8
detail
 62
    16
  6
CONTINUOUS
370
     5
100
AcDbLine
 10
1.83445496
 20
-5.5746802
 30
0.0
 11
1.84482104
 21
-5.5746802
 31
0.0
  0
LINE
  5
1C2
100
AcDbEntity
  8
detail
 62
    16
  6
CONTINUOUS
370
     5
100
AcDbLine
 10
1.84482104
 20
-5.56674386
 30
0.0
 11
1.83130898
 21
-5.56674386
 31
0.0
  0
LINE
  5
1C3
100
AcDbEntity
  8
detail
 62
    16
  6
CONTINUOUS
370
     5
100
AcDbLine
 10
1.83337996
 20
-5.57889332
 30
0.0
 11
1.84482104
 21
-5.57889332
 31
0.0
  0
LINE
  5
1C4
100
AcDbEntity
  8
detail
 62
    16
  6
CONTINUOUS
370
     5
100
AcDbLine
 10
1.83445496
 20
-5.57752161
 30
0.0
 11
1.84410594
 21
-5.57752161
 31
0.0
  0
LINE
  5
1C5
100
AcDbEntity
  8
detail
 62
    16
  6
CONTINUOUS
370
     5
100
AcDbLine
 10
1.83222163
 20
-5.56619011
 30
0.0
 11
1.8324307
 21
-5.56598431
 31
0.0
  0
LINE
  5
1C6
100
AcDbEntity
  8
detail
 62
    16
  6
CONTINUOUS
370
     5
100
AcDbLine
 10
1.83103754
 20
-5.57456537
 30
0.0
 11
1.831061
 21
-5.57451978
 31
0.0
  0
LINE
  5
1C7
100
AcDbEntity
  8
detail
 62
    16
  6
CONTINUOUS
370
     5
100
AcDbLine
 10
1.831061
 20
-5.57451978
 30
0.0
 11
1.83104444
 21
-5.57447126
 31
0.0
  0
LINE
  5
1C8
100
AcDbEntity
  8
detail
 62
    16
  6
CONTINUOUS
370
     5
100
AcDbLine
 10
1.83106407
 20
-5.57457273
 30
0.0
 11
1.83109022
 21
-5.57452192
 31
0.0
  0
LINE
  5
1C9
100
AcDbEntity
  8
detail
 62
    16
  6
CONTINUOUS
370
     5
100
AcDbLine
 10
1.83109022
 20
-5.57452192
 30
0.0
 11
1.83107176
 21
-5.57446784
 31
0.0
  0
LINE
  5
1CA
100
AcDbEntity
  8
detail
 62
    16
  6
CONTINUOUS
370
     5
100
AcDbLine
 10
1.83104956
 20
-5.57566955
 30
0.0
 11
1.83107401
 21
-5.57571462
 31
0.0
  0
LINE
  5
1CB
100
AcDbEntity
  8
detail
 62
    16
  6
CONTINUOUS
370
     5
100
AcDbLine
 10
1.83107401
 20
-5.57571462
 30
0.0
 11
1.83105851
 21
-5.57576349
 31
0.0
  0
LINE
  5
1CC
100
AcDbEntity
  8
detail
 62
    16
  6
CONTINUOUS
370
     5
100
AcDbLine
 10
1.83110318
 20
-5.57571184
 30
0.0
 11
1.8310859
 21
-5.57576631
 31
0.0
  0
LINE
  5
1CD
100
AcDbEntity
  8
detail
 62
    16
  6
CONTINUOUS
370
     5
100
AcDbLine
 10
1.83107593
 20
-5.57566161
 30
0.0
 11
1.83110318
 21
-5.57571184
 31
0.0
  0
LINE
  5
1CE
100
AcDbEntity
  8
detail
 62
    16
  6
CONTINUOUS
370
     5
100
AcDbLine
 10
1.83124228
 20
-5.57335227
 30
0.0
 11
1.83131878
 21
-5.57330508
 31
0.0
  0
LINE
  5
1CF
100
AcDbEntity
  8
detail
 62
    16
  6
CONTINUOUS
370
     5
100
AcDbLine
 10
1.83133476
 20
-5.57327762
 30
0.0
 11
1.83135138
 21
-5.57282004
 31
0.0
  0
LINE
  5
1D0
100
AcDbEntity
  8
detail
 62
    16
  6
CONTINUOUS
370
     5
100
AcDbLine
 10
1.83164575
 20
-5.57288355
 30
0.0
 11
1.83164775
 21
-5.57283101
 31
0.0
  0
LINE
  5
1D1
100
AcDbEntity
  8
detail
 62
    16
  6
CONTINUOUS
370
     5
100
AcDbLine
 10
1.83171145
 20
-5.57288013
 30
0.0
 11
1.83170076
 21
-5.57280526
 31
0.0
  0
LINE
  5
1D2
100
AcDbEntity
  8
detail
 62
    16
  6
CONTINUOUS
370
     5
100
AcDbLine
 10
1.83168476
 20
-5.57288393
 30
0.0
 11
1.83167324
 21
-5.572805
 31
0.0
  0
LINE
  5
1D3
100
AcDbEntity
  8
detail
 62
    16
  6
CONTINUOUS
370
     5
100
AcDbLine
 10
1.83167269
 20
-5.57288471
 30
0.0
 11
1.83167385
 21
-5.57280983
 31
0.0
  0
LINE
  5
1D4
100
AcDbEntity
  8
detail
 62
    16
  6
CONTINUOUS
370
     5
100
AcDbLine
 10
1.8314194
 20
-5.57320271
 30
0.0
 11
1.83140527
 21
-5.57283101
 31
0.0
  0
LINE
  5
1D5
100
AcDbEntity
  8
detail
 62
    16
  6
CONTINUOUS
370
     5
100
AcDbLine
 10
1.83115768
 20
-5.57858933
 30
0.0
 11
1.83117879
 21
-5.57854261
 31
0.0
  0
LINE
  5
1D6
100
AcDbEntity
  8
detail
 62
    16
  6
CONTINUOUS
370
     5
100
AcDbLine
 10
1.83198948
 20
-5.56909132
 30
0.0
 11
1.8319517
 21
-5.56902308
 31
0.0
  0
LINE
  5
1D7
100
AcDbEntity
  8
detail
 62
    16
  6
CONTINUOUS
370
     5
100
AcDbLine
 10
1.83196686
 20
-5.56892201
 30
0.0
 11
1.83200066
 21
-5.56888941
 31
0.0
  0
LINE
  5
1D8
100
AcDbEntity
  8
detail
 62
    16
  6
CONTINUOUS
370
     5
100
AcDbLine
 10
1.8320274
 20
-5.56890886
 30
0.0
 11
1.83199865
 21
-5.56896772
 31
0.0
  0
LINE
  5
1D9
100
AcDbEntity
  8
detail
 62
    16
  6
CONTINUOUS
370
     5
100
AcDbLine
 10
1.83199931
 20
-5.56899355
 30
0.0
 11
1.83201517
 21
-5.56902218
 31
0.0
  0
LINE
  5
1DA
100
AcDbEntity
  8
detail
 62
    16
  6
CONTINUOUS
370
     5
100
AcDbLine
 10
1.83198948
 20
-5.56909132
 30
0.0
 11
1.8319517
 21
-5.56902308
 31
0.0
  0
LINE
  5
1DB
100
AcDbEntity
  8
detail
 62
    16
  6
CONTINUOUS
370
     5
100
AcDbLine
 10
1.83196686
 20
-5.56892201
 30
0.0
 11
1.83200066
 21
-5.56888941
 31
0.0
  0
LINE
  5
1DC
100
AcDbEntity
  8
detail
 62
    16
  6
CONTINUOUS
370
     5
100
AcDbLine
 10
1.8320274
 20
-5.56890886
 30
0.0
 11
1.83199865
 21
-5.56896772
 31
0.0
  0
LINE
  5
1DD
100
AcDbEntity
  8
detail
 62
    16
  6
CONTINUOUS
370
     5
100
AcDbLine
 10
1.83199931
 20
-5.56899355
 30
0.0
 11
1.83201517
 21
-5.56902218
 31
0.0
  0
LINE
  5
1DE
100
AcDbEntity
  8
detail
 62
    16
  6
CONTINUOUS
370
     5
100
AcDbLine
 10
1.83198948
 20
-5.56909132
 30
0.0
 11
1.8319517
 21
-5.56902308
 31
0.0
  0
LINE
  5
1DF
100
AcDbEntity
  8
detail
 62
    16
  6
CONTINUOUS
370
     5
100
AcDbLine
 10
1.83196686
 20
-5.56892201
 30
0.0
 11
1.83200066
 21
-5.56888941
 31
0.0
  0
LINE
  5
1E0
100
AcDbEntity
  8
detail
 62
    16
  6
CONTINUOUS
370
     5
100
AcDbLine
 10
1.8320274
 20
-5.56890886
 30
0.0
 11
1.83199865
 21
-5.56896772
 31
0.0
  0
LINE
  5
1E1
100
AcDbEntity
  8
detail
 62
    16
  6
CONTINUOUS
370
     5
100
AcDbLine
 10
1.83199931
 20
-5.56899355
 30
0.0
 11
1.83201517
 21
-5.56902218
 31
0.0
  0
LINE
  5
1E2
100
AcDbEntity
  8
detail
 62
    16
  6
CONTINUOUS
370
     5
100
AcDbLine
 10
1.83198948
 20
-5.56909132
 30
0.0
 11
1.8319517
 21
-5.56902308
 31
0.0
  0
LINE
  5
1E3
100
AcDbEntity
  8
detail
 62
    16
  6
CONTINUOUS
370
     5
100
AcDbLine
 10
1.83196686
 20
-5.56892201
 30
0.0
 11
1.83200066
 21
-5.56888941
 31
0.0
  0
LINE
  5
1E4
100
AcDbEntity
  8
detail
 62
    16
  6
CONTINUOUS
370
     5
100
AcDbLine
 10
1.8320274
 20
-5.56890886
 30
0.0
 11
1.83199865
 21
-5.56896772
 31
0.0
  0
LINE
  5
1E5
100
AcDbEntity
  8
detail
 62
    16
  6
CONTINUOUS
370
     5
100
AcDbLine
 10
1.83199931
 20
-5.56899355
 30
0.0
 11
1.83201517
 21
-5.56902218
 31
0.0
  0
LINE
  5
1E6
100
AcDbEntity
  8
detail
 62
    16
  6
CONTINUOUS
370
     5
100
AcDbLine
 10
1.83198948
 20
-5.56909132
 30
0.0
 11
1.8319517
 21
-5.56902308
 31
0.0
  0
LINE
  5
1E7
100
AcDbEntity
  8
detail
 62
    16
  6
CONTINUOUS
370
     5
100
AcDbLine
 10
1.83196686
 20
-5.56892201
 30
0.0
 11
1.83200066
 21
-5.56888941
 31
0.0
  0
LINE
  5
1E8
100
AcDbEntity
  8
detail
 62
    16
  6
CONTINUOUS
370
     5
100
AcDbLine
 10
1.8320274
 20
-5.56890886
 30
0.0
 11
1.83199865
 21
-5.56896772
 31
0.0
  0
LINE
  5
1E9
100
AcDbEntity
  8
detail
 62
    16
  6
CONTINUOUS
370
     5
100
AcDbLine
 10
1.83199931
 20
-5.56899355
 30
0.0
 11
1.83201517
 21
-5.56902218
 31
0.0
  0
LINE
  5
1EA
100
AcDbEntity
  8
detail
 62
    16
  6
CONTINUOUS
370
     5
100
AcDbLine
 10
1.83198948
 20
-5.56909132
 30
0.0
 11
1.8319517
 21
-5.56902308
 31
0.0
  0
LINE
  5
1EB
100
AcDbEntity
  8
detail
 62
    16
  6
CONTINUOUS
370
     5
100
AcDbLine
 10
1.83196686
 20
-5.56892201
 30
0.0
 11
1.83200066
 21
-5.56888941
 31
0.0
  0
LINE
  5
1EC
100
AcDbEntity
  8
detail
 62
    16
  6
CONTINUOUS
370
     5
100
AcDbLine
 10
1.8320274
 20
-5.56890886
 30
0.0
 11
1.83199865
 21
-5.56896772
 31
0.0
  0
LINE
  5
1ED
100
AcDbEntity
  8
detail
 62
    16
  6
CONTINUOUS
370
     5
100
AcDbLine
 10
1.83199931
 20
-5.56899355
 30
0.0
 11
1.83201517
 21
-5.56902218
 31
0.0
  0
LINE
  5
1EE
100
AcDbEntity
  8
detail
 62
    16
  6
CONTINUOUS
370
     5
100
AcDbLine
 10
1.83198948
 20
-5.56909132
 30
0.0
 11
1.8319517
 21
-5.56902308
 31
0.0
  0
LINE
  5
1EF
100
AcDbEntity
  8
detail
 62
    16
  6
CONTINUOUS
370
     5
100
AcDbLine
 10
1.83196686
 20
-5.56892201
 30
0.0
 11
1.83200066
 21
-5.56888941
 31
0.0
  0
LINE
  5
1F0
100
AcDbEntity
  8
detail
 62
    16
  6
CONTINUOUS
370
     5
100
AcDbLine
 10
1.8320274
 20
-5.56890886
 30
0.0
 11
1.83199865
 21
-5.56896772
 31
0.0
  0
LINE
  5
1F1
100
AcDbEntity
  8
detail
 62
    16
  6
CONTINUOUS
370
     5
100
AcDbLine
 10
1.83199931
 20
-5.56899355
 30
0.0
 11
1.83201517
 21
-5.56902218
 31
0.0
  0
LINE
  5
1F2
100
AcDbEntity
  8
detail
 62
    16
  6
CONTINUOUS
370
     5
100
AcDbLine
 10
1.83198948
 20
-5.56909132
 30
0.0
 11
1.8319517
 21
-5.56902308
 31
0.0
  0
LINE
  5
1F3
100
AcDbEntity
  8
detail
 62
    16
  6
CONTINUOUS
370
     5
100
AcDbLine
 10
1.83196686
 20
-5.56892201
 30
0.0
 11
1.83200066
 21
-5.56888941
 31
0.0
  0
LINE
  5
1F4
100
AcDbEntity
  8
detail
 62
    16
  6
CONTINUOUS
370
     5
100
AcDbLine
 10
1.8320274
 20
-5.56890886
 30
0.0
 11
1.83199865
 21
-5.56896772
 31
0.0
  0
LINE
  5
1F5
100
AcDbEntity
  8
detail
 62
    16
  6
CONTINUOUS
370
     5
100
AcDbLine
 10
1.83199931
 20
-5.56899355
 30
0.0
 11
1.83201517
 21
-5.56902218
 31
0.0
  0
LINE
  5
1F6
100
AcDbEntity
  8
detail
 62
    16
  6
CONTINUOUS
370
     5
100
AcDbLine
 10
1.83198948
 20
-5.56909132
 30
0.0
 11
1.8319517
 21
-5.56902308
 31
0.0
  0
LINE
  5
1F7
100
AcDbEntity
  8
detail
 62
    16
  6
CONTINUOUS
370
     5
100
AcDbLine
 10
1.83196686
 20
-5.56892201
 30
0.0
 11
1.83200066
 21
-5.56888941
 31
0.0
  0
LINE
  5
1F8
100
AcDbEntity
  8
detail
 62
    16
  6
CONTINUOUS
370
     5
100
AcDbLine
 10
1.8320274
 20
-5.56890886
 30
0.0
 11
1.83199865
 21
-5.56896772
 31
0.0
  0
LINE
  5
1F9
100
AcDbEntity
  8
detail
 62
    16
  6
CONTINUOUS
370
     5
100
AcDbLine
 10
1.83199931
 20
-5.56899355
 30
0.0
 11
1.83201517
 21
-5.56902218
 31
0.0
  0
LINE
  5
1FA
100
AcDbEntity
  8
detail
 62
    16
  6
CONTINUOUS
370
     5
100
AcDbLine
 10
1.83198948
 20
-5.56909132
 30
0.0
 11
1.8319517
 21
-5.56902308
 31
0.0
  0
LINE
  5
1FB
100
AcDbEntity
  8
detail
 62
    16
  6
CONTINUOUS
370
     5
100
AcDbLine
 10
1.83196686
 20
-5.56892201
 30
0.0
 11
1.83200066
 21
-5.56888941
 31
0.0
  0
LINE
  5
1FC
100
AcDbEntity
  8
detail
 62
    16
  6
CONTINUOUS
370
     5
100
AcDbLine
 10
1.8320274
 20
-5.56890886
 30
0.0
 11
1.83199865
 21
-5.56896772
 31
0.0
  0
LINE
  5
1FD
100
AcDbEntity
  8
detail
 62
    16
  6
CONTINUOUS
370
     5
100
AcDbLine
 10
1.83199931
 20
-5.56899355
 30
0.0
 11
1.83201517
 21
-5.56902218
 31
0.0
  0
LINE
  5
1FE
100
AcDbEntity
  8
detail
 62
    16
  6
CONTINUOUS
370
     5
100
AcDbLine
 10
1.83198948
 20
-5.56909132
 30
0.0
 11
1.8319517
 21
-5.56902308
 31
0.0
  0
LINE
  5
1FF
100
AcDbEntity
  8
detail
 62
    16
  6
CONTINUOUS
370
     5
100
AcDbLine
 10
1.83196686
 20
-5.56892201
 30
0.0
 11
1.83200066
 21
-5.56888941
 31
0.0
  0
LINE
  5
200
100
AcDbEntity
  8
detail
 62
    16
  6
CONTINUOUS
370
     5
100
AcDbLine
 10
1.8320274
 20
-5.56890886
 30
0.0
 11
1.83199865
 21
-5.56896772
 31
0.0
  0
LINE
  5
201
100
AcDbEntity
  8
detail
 62
    16
  6
CONTINUOUS
370
     5
100
AcDbLine
 10
1.83199931
 20
-5.56899355
 30
0.0
 11
1.83201517
 21
-5.56902218
 31
0.0
  0
LINE
  5
202
100
AcDbEntity
  8
detail
 62
    16
  6
CONTINUOUS
370
     5
100
AcDbLine
 10
1.83198948
 20
-5.56909132
 30
0.0
 11
1.8319517
 21
-5.56902308
 31
0.0
  0
LINE
  5
203
100
AcDbEntity
  8
detail
 62
    16
  6
CONTINUOUS
370
     5
100
AcDbLine
 10
1.83196686
 20
-5.56892201
 30
0.0
 11
1.83200066
 21
-5.56888941
 31
0.0
  0
LINE
  5
204
100
AcDbEntity
  8
detail
 62
    16
  6
CONTINUOUS
370
     5
100
AcDbLine
 10
1.8320274
 20
-5.56890886
 30
0.0
 11
1.83199865
 21
-5.56896772
 31
0.0
  0
LINE
  5
205
100
AcDbEntity
  8
detail
 62
    16
  6
CONTINUOUS
370
     5
100
AcDbLine
 10
1.83199931
 20
-5.56899355
 30
0.0
 11
1.83201517
 21
-5.56902218
 31
0.0
  0
LINE
  5
206
100
AcDbEntity
  8
detail
 62
    16
  6
CONTINUOUS
370
     5
100
AcDbLine
 10
1.83198948
 20
-5.56909132
 30
0.0
 11
1.8319517
 21
-5.56902308
 31
0.0
  0
LINE
  5
207
100
AcDbEntity
  8
detail
 62
    16
  6
CONTINUOUS
370
     5
100
AcDbLine
 10
1.83196686
 20
-5.56892201
 30
0.0
 11
1.83200066
 21
-5.56888941
 31
0.0
  0
LINE
  5
208
100
AcDbEntity
  8
detail
 62
    16
  6
CONTINUOUS
370
     5
100
AcDbLine
 10
1.8320274
 20
-5.56890886
 30
0.0
 11
1.83199865
 21
-5.56896772
 31
0.0
  0
LINE
  5
209
100
AcDbEntity
  8
detail
 62
    16
  6
CONTINUOUS
370
     5
100
AcDbLine
 10
1.83199931
 20
-5.56899355
 30
0.0
 11
1.83201517
 21
-5.56902218
 31
0.0
  0
LINE
  5
20A
100
AcDbEntity
  8
detail
 62
    16
  6
CONTINUOUS
370
     5
100
AcDbLine
 10
1.83198948
 20
-5.56909132
 30
0.0
 11
1.8319517
 21
-5.56902308
 31
0.0
  0
LINE
  5
20B
100
AcDbEntity
  8
detail
 62
    16
  6
CONTINUOUS
370
     5
100
AcDbLine
 10
1.83196686
 20
-5.56892201
 30
0.0
 11
1.83200066
 21
-5.56888941
 31
0.0
  0
LINE
  5
20C
100
AcDbEntity
  8
detail
 62
    16
  6
CONTINUOUS
370
     5
100
AcDbLine
 10
1.8320274
 20
-5.56890886
 30
0.0
 11
1.83199865
 21
-5.56896772
 31
0.0
  0
LINE
  5
20D
100
AcDbEntity
  8
detail
 62
    16
  6
CONTINUOUS
370
     5
100
AcDbLine
 10
1.83199931
 20
-5.56899355
 30
0.0
 11
1.83201517
 21
-5.56902218
 31
0.0
  0
LINE
  5
20E
100
AcDbEntity
  8
detail
 62
    16
  6
CONTINUOUS
370
     5
100
AcDbLine
 10
1.83198948
 20
-5.56909132
 30
0.0
 11
1.8319517
 21
-5.56902308
 31
0.0
  0
LINE
  5
20F
100
AcDbEntity
  8
detail
 62
    16
  6
CONTINUOUS
370
     5
100
AcDbLine
 10
1.83196686
 20
-5.56892201
 30
0.0
 11
1.83200066
 21
-5.56888941
 31
0.0
  0
LINE
  5
210
100
AcDbEntity
  8
detail
 62
    16
  6
CONTINUOUS
370
     5
100
AcDbLine
 10
1.8320274
 20
-5.56890886
 30
0.0
 11
1.83199865
 21
-5.56896772
 31
0.0
  0
LINE
  5
211
100
AcDbEntity
  8
detail
 62
    16
  6
CONTINUOUS
370
     5
100
AcDbLine
 10
1.83199931
 20
-5.56899355
 30
0.0
 11
1.83201517
 21
-5.56902218
 31
0.0
  0
LINE
  5
212
100
AcDbEntity
  8
detail
 62
    16
  6
CONTINUOUS
370
     5
100
AcDbLine
 10
1.83198948
 20
-5.56909132
 30
0.0
 11
1.8319517
 21
-5.56902308
 31
0.0
  0
LINE
  5
213
100
AcDbEntity
  8
detail
 62
    16
  6
CONTINUOUS
370
     5
100
AcDbLine
 10
1.83196686
 20
-5.56892201
 30
0.0
 11
1.83200066
 21
-5.56888941
 31
0.0
  0
LINE
  5
214
100
AcDbEntity
  8
detail
 62
    16
  6
CONTINUOUS
370
     5
100
AcDbLine
 10
1.8320274
 20
-5.56890886
 30
0.0
 11
1.83199865
 21
-5.56896772
 31
0.0
  0
LINE
  5
215
100
AcDbEntity
  8
detail
 62
    16
  6
CONTINUOUS
370
     5
100
AcDbLine
 10
1.83199931
 20
-5.56899355
 30
0.0
 11
1.83201517
 21
-5.56902218
 31
0.0
  0
LINE
  5
216
100
AcDbEntity
  8
detail
 62
    16
  6
CONTINUOUS
370
     5
100
AcDbLine
 10
1.83204534
 20
-5.56858986
 30
0.0
 11
1.83179381
 21
-5.56884138
 31
0.0
  0
LINE
  5
217
100
AcDbEntity
  8
detail
 62
    16
  6
CONTINUOUS
370
     5
100
AcDbLine
 10
1.83178922
 20
-5.56884716
 30
0.0
 11
1.83175882
 21
-5.56887648
 31
0.0
  0
LINE
  5
218
100
AcDbEntity
  8
detail
 62
    16
  6
CONTINUOUS
370
     5
100
AcDbLine
 10
1.83178922
 20
-5.56884716
 30
0.0
 11
1.83175882
 21
-5.56887648
 31
0.0
  0
LINE
  5
219
100
AcDbEntity
  8
detail
 62
    16
  6
CONTINUOUS
370
     5
100
AcDbLine
 10
1.83178922
 20
-5.56884716
 30
0.0
 11
1.83175882
 21
-5.56887648
 31
0.0
  0
LINE
  5
21A
100
AcDbEntity
  8
detail
 62
    16
  6
CONTINUOUS
370
     5
100
AcDbLine
 10
1.83178922
 20
-5.56884716
 30
0.0
 11
1.83175882
 21
-5.56887648
 31
0.0
  0
LINE
  5
21B
100
AcDbEntity
  8
detail
 62
    16
  6
CONTINUOUS
370
     5
100
AcDbLine
 10
1.83178922
 20
-5.56884716
 30
0.0
 11
1.83175882
 21
-5.56887648
 31
0.0
  0
LINE
  5
21C
100
AcDbEntity
  8
detail
 62
    16
  6
CONTINUOUS
370
     5
100
AcDbLine
 10
1.83178922
 20
-5.56884716
 30
0.0
 11
1.83175882
 21
-5.56887648
 31
0.0
  0
LINE
  5
21D
100
AcDbEntity
  8
detail
 62
    16
  6
CONTINUOUS
370
     5
100
AcDbLine
 10
1.83178922
 20
-5.56884716
 30
0.0
 11
1.83175882
 21
-5.56887648
 31
0.0
  0
LINE
  5
21E
100
AcDbEntity
  8
detail
 62
    16
  6
CONTINUOUS
370
     5
100
AcDbLine
 10
1.83178922
 20
-5.56884716
 30
0.0
 11
1.83175882
 21
-5.56887648
 31
0.0
  0
LINE
  5
21F
100
AcDbEntity
  8
detail
 62
    16
  6
CONTINUOUS
370
     5
100
AcDbLine
 10
1.83178922
 20
-5.56884716
 30
0.0
 11
1.83175882
 21
-5.56887648
 31
0.0
  0
LINE
  5
220
100
AcDbEntity
  8
detail
 62
    16
  6
CONTINUOUS
370
     5
100
AcDbLine
 10
1.83178922
 20
-5.56884716
 30
0.0
 11
1.83175882
 21
-5.56887648
 31
0.0
  0
LINE
  5
221
100
AcDbEntity
  8
detail
 62
    16
  6
CONTINUOUS
370
     5
100
AcDbLine
 10
1.83178922
 20
-5.56884716
 30
0.0
 11
1.83175882
 21
-5.56887648
 31
0.0
  0
LINE
  5
222
100
AcDbEntity
  8
detail
 62
    16
  6
CONTINUOUS
370
     5
100
AcDbLine
 10
1.83178922
 20
-5.56884716
 30
0.0
 11
1.83175882
 21
-5.56887648
 31
0.0
  0
LINE
  5
223
100
AcDbEntity
  8
detail
 62
    16
  6
CONTINUOUS
370
     5
100
AcDbLine
 10
1.83178922
 20
-5.56884716
 30
0.0
 11
1.83175882
 21
-5.56887648
 31
0.0
  0
LINE
  5
224
100
AcDbEntity
  8
detail
 62
    16
  6
CONTINUOUS
370
     5
100
AcDbLine
 10
1.83178922
 20
-5.56884716
 30
0.0
 11
1.83175882
 21
-5.56887648
 31
0.0
  0
LINE
  5
225
100
AcDbEntity
  8
detail
 62
    16
  6
CONTINUOUS
370
     5
100
AcDbLine
 10
1.83178922
 20
-5.56884716
 30
0.0
 11
1.83175882
 21
-5.56887648
 31
0.0
  0
LINE
  5
226
100
AcDbEntity
  8
detail
 62
    16
  6
CONTINUOUS
370
     5
100
AcDbLine
 10
1.83178922
 20
-5.56884716
 30
0.0
 11
1.83175882
 21
-5.56887648
 31
0.0
  0
LINE
  5
227
100
AcDbEntity
  8
detail
 62
    16
  6
CONTINUOUS
370
     5
100
AcDbLine
 10
1.83282555
 20
-5.56834865
 30
0.0
 11
1.83286536
 21
-5.56837449
 31
0.0
  0
LINE
  5
228
100
AcDbEntity
  8
detail
 62
    16
  6
CONTINUOUS
370
     5
100
AcDbLine
 10
1.83857736
 20
-5.57376592
 30
0.0
 11
1.83857736
 21
-5.57278612
 31
0.0
  0
LINE
  5
229
100
AcDbEntity
  8
detail
 62
    16
  6
CONTINUOUS
370
     5
100
AcDbLine
 10
1.83857736
 20
-5.57376592
 30
0.0
 11
1.83955716
 21
-5.57376592
 31
0.0
  0
LINE
  5
22A
100
AcDbEntity
  8
detail
 62
    16
  6
CONTINUOUS
370
     5
100
AcDbLine
 10
1.83955716
 20
-5.57376592
 30
0.0
 11
1.83955716
 21
-5.57278612
 31
0.0
  0
LINE
  5
22B
100
AcDbEntity
  8
detail
 62
    16
  6
CONTINUOUS
370
     5
100
AcDbLine
 10
1.83955716
 20
-5.57278612
 30
0.0
 11
1.83857736
 21
-5.57278612
 31
0.0
  0
LINE
  5
22C
100
AcDbEntity
  8
detail
 62
    16
  6
CONTINUOUS
370
     5
100
AcDbLine
 10
1.83906726
 20
-5.57327602
 30
0.0
 11
1.83906726
 21
-5.57327602
 31
0.0
  0
LINE
  5
22D
100
AcDbEntity
  8
detail
 62
    16
  6
CONTINUOUS
370
     5
100
AcDbLine
 10
1.83857736
 20
-5.57376592
 30
0.0
 11
1.83857736
 21
-5.57278612
 31
0.0
  0
LINE
  5
22E
100
AcDbEntity
  8
detail
 62
    16
  6
CONTINUOUS
370
     5
100
AcDbLine
 10
1.83857736
 20
-5.57376592
 30
0.0
 11
1.83955716
 21
-5.57376592
 31
0.0
  0
LINE
  5
22F
100
AcDbEntity
  8
detail
 62
    16
  6
CONTINUOUS
370
     5
100
AcDbLine
 10
1.83955716
 20
-5.57376592
 30
0.0
 11
1.83955716
 21
-5.57278612
 31
0.0
  0
LINE
  5
230
100
AcDbEntity
  8
detail
 62
    16
  6
CONTINUOUS
370
     5
100
AcDbLine
 10
1.83955716
 20
-5.57278612
 30
0.0
 11
1.83857736
 21
-5.57278612
 31
0.0
  0
LINE
  5
231
100
AcDbEntity
  8
detail
 62
    16
  6
CONTINUOUS
370
     5
100
AcDbLine
 10
1.83906726
 20
-5.57327602
 30
0.0
 11
1.83906726
 21
-5.57327602
 31
0.0
  0
LINE
  5
232
100
AcDbEntity
  8
detail
 62
    16
  6
CONTINUOUS
370
     5
100
AcDbLine
 10
1.83857736
 20
-5.57376592
 30
0.0
 11
1.83857736
 21
-5.57278612
 31
0.0
  0
LINE
  5
233
100
AcDbEntity
  8
detail
 62
    16
  6
CONTINUOUS
370
     5
100
AcDbLine
 10
1.83857736
 20
-5.57376592
 30
0.0
 11
1.83955716
 21
-5.57376592
 31
0.0
  0
LINE
  5
234
100
AcDbEntity
  8
detail
 62
    16
  6
CONTINUOUS
370
     5
100
AcDbLine
 10
1.83955716
 20
-5.57376592
 30
0.0
 11
1.83955716
 21
-5.57278612
 31
0.0
  0
LINE
  5
235
100
AcDbEntity
  8
detail
 62
    16
  6
CONTINUOUS
370
     5
100
AcDbLine
 10
1.83955716
 20
-5.57278612
 30
0.0
 11
1.83857736
 21
-5.57278612
 31
0.0
  0
LINE
  5
236
100
AcDbEntity
  8
detail
 62
    16
  6
CONTINUOUS
370
     5
100
AcDbLine
 10
1.83906726
 20
-5.57327602
 30
0.0
 11
1.83906726
 21
-5.57327602
 31
0.0
  0
LINE
  5
237
100
AcDbEntity
  8
detail
 62
    16
  6
CONTINUOUS
370
     5
100
AcDbLine
 10
1.83857736
 20
-5.57376592
 30
0.0
 11
1.83857736
 21
-5.57278612
 31
0.0
  0
LINE
  5
238
100
AcDbEntity
  8
detail
 62
    16
  6
CONTINUOUS
370
     5
100
AcDbLine
 10
1.83857736
 20
-5.57376592
 30
0.0
 11
1.83955716
 21
-5.57376592
 31
0.0
  0
LINE
  5
239
100
AcDbEntity
  8
detail
 62
    16
  6
CONTINUOUS
370
     5
100
AcDbLine
 10
1.83955716
 20
-5.57376592
 30
0.0
 11
1.83955716
 21
-5.57278612
 31
0.0
  0
LINE
  5
23A
100
AcDbEntity
  8
detail
 62
    16
  6
CONTINUOUS
370
     5
100
AcDbLine
 10
1.83955716
 20
-5.57278612
 30
0.0
 11
1.83857736
 21
-5.57278612
 31
0.0
  0
LINE
  5
23B
100
AcDbEntity
  8
detail
 62
    16
  6
CONTINUOUS
370
     5
100
AcDbLine
 10
1.83972697
 20
-5.57632025
 30
0.0
 11
1.84086043
 21
-5.57426491
 31
0.0
  0
LINE
  5
23C
100
AcDbEntity
  8
detail
 62
    16
  6
CONTINUOUS
370
     5
100
AcDbLine
 10
1.83840755
 20
-5.57632025
 30
0.0
 11
1.83727409
 21
-5.57426491
 31
0.0
  0
LINE
  5
23D
100
AcDbEntity
  8
detail
 62
    16
  6
CONTINUOUS
370
     5
100
AcDbLine
 10
1.83955716
 20
-5.57376592
 30
0.0
 11
1.83857736
 21
-5.57278612
 31
0.0
  0
LINE
  5
23E
100
AcDbEntity
  8
detail
 62
    16
  6
CONTINUOUS
370
     5
100
AcDbLine
 10
1.83955716
 20
-5.57278612
 30
0.0
 11
1.83857736
 21
-5.57376592
 31
0.0
  0
LINE
  5
23F
100
AcDbEntity
  8
detail
 62
    16
  6
CENTER
370
     5
100
AcDbLine
 10
1.83768248
 20
-5.57327602
 30
0.0
 11
1.84045204
 21
-5.57327602
 31
0.0
  0
LINE
  5
240
100
AcDbEntity
  8
detail
 62
    16
  6
CENTER
370
     5
100
AcDbLine
 10
1.83906726
 20
-5.57464154
 30
0.0
 11
1.83906726
 21
-5.57193076
 31
0.0
  0
LINE
  5
241
100
AcDbEntity
  8
detail
 62
    16
  6
CENTER
370
     5
100
AcDbLine
 10
1.83501445
 20
-5.57779105
 30
0.0
 11
1.83412618
 21
-5.57779105
 31
0.0
  0
LINE
  5
242
100
AcDbEntity
  8
detail
 62
    16
  6
CENTER
370
     5
100
AcDbLine
 10
1.83456529
 20
-5.57821814
 30
0.0
 11
1.83456529
 21
-5.57734763
 31
0.0
  0
LINE
  5
243
100
AcDbEntity
  8
detail
 62
    16
  6
CONTINUOUS
370
     5
100
AcDbLine
 10
1.83631529
 20
-5.58033469
 30
0.0
 11
1.83281529
 21
-5.58033469
 31
0.0
  0
LINE
  5
244
100
AcDbEntity
  8
detail
 62
    16
  6
CONTINUOUS
370
     5
100
AcDbLine
 10
1.83299363
 20
-5.57957254
 30
0.0
 11
1.83413591
 21
-5.57747653
 31
0.0
  0
LINE
  5
245
100
AcDbEntity
  8
detail
 62
    16
  6
CONTINUOUS
370
     5
100
AcDbLine
 10
1.83613695
 20
-5.57957254
 30
0.0
 11
1.83499467
 21
-5.57747653
 31
0.0
  0
LINE
  5
246
100
AcDbEntity
  8
detail
 62
    16
  6
CONTINUOUS
370
     5
100
AcDbLine
 10
1.83541769
 20
-5.58457968
 30
0.0
 11
1.83456529
 21
-5.58457968
 31
0.0
  0
LINE
  5
247
100
AcDbEntity
  8
detail
 62
    16
  6
CONTINUOUS
370
     5
100
AcDbLine
 10
1.83332698
 20
-5.58033469
 30
0.0
 11
1.83301529
 21
-5.58033469
 31
0.0
  0
LINE
  5
248
100
AcDbEntity
  8
detail
 62
    16
  6
CONTINUOUS
370
     5
100
AcDbLine
 10
1.83456529
 20
-5.58447968
 30
0.0
 11
1.83561456
 21
-5.58447968
 31
0.0
  0
LINE
  5
249
100
AcDbEntity
  8
detail
 62
    16
  6
CONTINUOUS
370
     5
100
AcDbLine
 10
1.83319821
 20
-5.58040794
 30
0.0
 11
1.83332698
 21
-5.58040794
 31
0.0
  0
LINE
  5
24A
100
AcDbEntity
  8
detail
 62
    16
  6
CONTINUOUS
370
     5
100
AcDbLine
 10
1.83621529
 20
-5.58057991
 30
0.0
 11
1.83621529
 21
-5.58430268
 31
0.0
  0
LINE
  5
24B
100
AcDbEntity
  8
detail
 62
    16
  6
CONTINUOUS
370
     5
100
AcDbLine
 10
1.83380155
 20
-5.58037991
 30
0.0
 11
1.83611529
 21
-5.58037991
 31
0.0
  0
LINE
  5
24C
100
AcDbEntity
  8
detail
 62
    16
  6
CONTINUOUS
370
     5
100
AcDbLine
 10
1.83319821
 20
-5.58050775
 30
0.0
 11
1.83319821
 21
-5.58040794
 31
0.0
  0
LINE
  5
24D
100
AcDbEntity
  8
detail
 62
    16
  6
CONTINUOUS
370
     5
100
AcDbLine
 10
1.83631529
 20
-5.58038469
 30
0.0
 11
1.83631529
 21
-5.58430268
 31
0.0
  0
LINE
  5
24E
100
AcDbEntity
  8
detail
 62
    16
  6
CONTINUOUS
370
     5
100
AcDbLine
 10
1.83291529
 20
-5.58493511
 30
0.0
 11
1.83291529
 21
-5.58448683
 31
0.0
  0
LINE
  5
24F
100
AcDbEntity
  8
detail
 62
    16
  6
CONTINUOUS
370
     5
100
AcDbLine
 10
1.83550172
 20
-5.58463312
 30
0.0
 11
1.83564202
 21
-5.58455033
 31
0.0
  0
LINE
  5
250
100
AcDbEntity
  8
detail
 62
    16
  6
CONTINUOUS
370
     5
100
AcDbLine
 10
1.83281529
 20
-5.58053469
 30
0.0
 11
1.83281529
 21
-5.58493511
 31
0.0
  0
LINE
  5
251
100
AcDbEntity
  8
detail
 62
    16
  6
CONTINUOUS
370
     5
100
AcDbLine
 10
1.83485882
 20
-5.58498469
 30
0.0
 11
1.83563328
 21
-5.58498469
 31
0.0
  0
LINE
  5
252
100
AcDbEntity
  8
detail
 62
    16
  6
CONTINUOUS
370
     5
100
AcDbLine
 10
1.83291529
 20
-5.58053469
 30
0.0
 11
1.83291529
 21
-5.58462729
 31
0.0
  0
LINE
  5
253
100
AcDbEntity
  8
detail
 62
    16
  6
CONTINUOUS
370
     5
100
AcDbLine
 10
1.8353744
 20
-5.58488469
 30
0.0
 11
1.83485882
 21
-5.58488469
 31
0.0
  0
LINE
  5
254
100
AcDbEntity
  8
detail
 62
    16
  6
CONTINUOUS
370
     5
100
AcDbLine
 10
1.83551137
 20
-5.58488469
 30
0.0
 11
1.83563328
 21
-5.58488469
 31
0.0
  0
LINE
  5
255
100
AcDbEntity
  8
detail
 62
    16
  6
CONTINUOUS
370
     5
100
AcDbLine
 10
1.83382355
 20
-5.58047991
 30
0.0
 11
1.83611529
 21
-5.58047991
 31
0.0
  0
LINE
  5
256
100
AcDbEntity
  8
detail
 62
    16
  6
CONTINUOUS
370
     5
100
AcDbLine
 10
1.83359844
 20
-5.58033469
 30
0.0
 11
1.8337277
 21
-5.58033469
 31
0.0
  0
LINE
  5
257
100
AcDbEntity
  8
detail
 62
    16
  6
CONTINUOUS
370
     5
100
AcDbLine
 10
1.83319773
 20
-5.58060775
 30
0.0
 11
1.83372721
 21
-5.58060775
 31
0.0
  0
LINE
  5
258
100
AcDbEntity
  8
detail
 62
    16
  6
CONTINUOUS
370
     5
100
AcDbLine
 10
1.83622117
 20
-5.58041024
 30
0.0
 11
1.83622117
 21
-5.58036502
 31
0.0
  0
LINE
  5
259
100
AcDbEntity
  8
detail
 62
    16
  6
CONTINUOUS
370
     5
100
AcDbLine
 10
1.83372721
 20
-5.58040794
 30
0.0
 11
1.83359844
 21
-5.58040794
 31
0.0
  0
LINE
  5
25A
100
AcDbEntity
  8
detail
 62
    16
  6
CONTINUOUS
370
     5
100
AcDbLine
 10
1.83486529
 20
-5.5821349
 30
0.0
 11
1.83426529
 21
-5.5821349
 31
0.0
  0
LINE
  5
25B
100
AcDbEntity
  8
detail
 62
    16
  6
CONTINUOUS
370
     5
100
AcDbLine
 10
1.83426529
 20
-5.5821349
 30
0.0
 11
1.83426529
 21
-5.5827349
 31
0.0
  0
LINE
  5
25C
100
AcDbEntity
  8
detail
 62
    16
  6
CONTINUOUS
370
     5
100
AcDbLine
 10
1.83426529
 20
-5.5827349
 30
0.0
 11
1.83486529
 21
-5.5827349
 31
0.0
  0
LINE
  5
25D
100
AcDbEntity
  8
detail
 62
    16
  6
CONTINUOUS
370
     5
100
AcDbLine
 10
1.83486529
 20
-5.5821349
 30
0.0
 11
1.83486529
 21
-5.5827349
 31
0.0
  0
LINE
  5
25E
100
AcDbEntity
  8
detail
 62
    16
  6
CONTINUOUS
370
     5
100
AcDbLine
 10
1.83486529
 20
-5.5821349
 30
0.0
 11
1.83426529
 21
-5.5827349
 31
0.0
  0
LINE
  5
25F
100
AcDbEntity
  8
detail
 62
    16
  6
CONTINUOUS
370
     5
100
AcDbLine
 10
1.83486529
 20
-5.5827349
 30
0.0
 11
1.83426529
 21
-5.5821349
 31
0.0
  0
LINE
  5
260
100
AcDbEntity
  8
detail
 62
    16
  6
CONTINUOUS
370
     5
100
AcDbLine
 10
1.83381062
 20
-5.58051337
 30
0.0
 11
1.83381062
 21
-5.58052483
 31
0.0
  0
LINE
  5
261
100
AcDbEntity
  8
detail
 62
    16
  6
CONTINUOUS
370
     5
100
AcDbLine
 10
1.83332698
 20
-5.58033469
 30
0.0
 11
1.83332698
 21
-5.58040794
 31
0.0
  0
LINE
  5
262
100
AcDbEntity
  8
detail
 62
    16
  6
CONTINUOUS
370
     5
100
AcDbLine
 10
1.83372721
 20
-5.58050775
 30
0.0
 11
1.83372721
 21
-5.58040794
 31
0.0
  0
LINE
  5
263
100
AcDbEntity
  8
detail
 62
    16
  6
CONTINUOUS
370
     5
100
AcDbLine
 10
1.83359844
 20
-5.58033469
 30
0.0
 11
1.83359844
 21
-5.58040794
 31
0.0
  0
LINE
  5
264
100
AcDbEntity
  8
detail
 62
    16
  6
CONTINUOUS
370
     5
100
AcDbLine
 10
1.83319821
 20
-5.58050775
 30
0.0
 11
1.83372721
 21
-5.58050775
 31
0.0
  0
LINE
  5
265
100
AcDbEntity
  8
detail
 62
    16
  6
CONTINUOUS
370
     5
100
AcDbLine
 10
1.83521529
 20
-5.58505993
 30
0.0
 11
1.83281529
 21
-5.58505993
 31
0.0
  0
LINE
  5
266
100
AcDbEntity
  8
detail
 62
    16
  6
CONTINUOUS
370
     5
100
AcDbLine
 10
1.83099621
 20
-5.5827511
 30
0.0
 11
1.83106766
 21
-5.58325533
 31
0.0
  0
LINE
  5
267
100
AcDbEntity
  8
detail
 62
    16
  6
CONTINUOUS
370
     5
100
AcDbLine
 10
1.83611629
 20
-5.57449835
 30
0.0
 11
1.83611629
 21
-5.57205369
 31
0.0
  0
LINE
  5
268
100
AcDbEntity
  8
detail
 62
    16
  6
CONTINUOUS
370
     5
100
AcDbLine
 10
1.83820581
 20
-5.57750294
 30
0.0
 11
1.83648081
 21
-5.57750294
 31
0.0
  0
LINE
  5
269
100
AcDbEntity
  8
detail
 62
    16
  6
CONTINUOUS
370
     5
100
AcDbLine
 10
1.84548081
 20
-5.57750294
 30
0.0
 11
1.84375581
 21
-5.57750294
 31
0.0
  0
LINE
  5
26A
100
AcDbEntity
  8
detail
 62
    16
  6
CONTINUOUS
370
     5
100
AcDbLine
 10
1.84050581
 20
-5.57750294
 30
0.0
 11
1.84145581
 21
-5.57750294
 31
0.0
  0
LINE
  5
26B
100
AcDbEntity
  8
detail
 62
    16
  6
CONTINUOUS
370
     5
100
AcDbLine
 10
1.83648081
 20
-5.57717794
 30
0.0
 11
1.84548081
 21
-5.57717794
 31
0.0
  0
LINE
  5
26C
100
AcDbEntity
  8
detail
 62
    16
  6
CONTINUOUS
370
     5
100
AcDbLine
 10
1.83648081
 20
-5.57850294
 30
0.0
 11
1.83648081
 21
-5.57805294
 31
0.0
  0
LINE
  5
26D
100
AcDbEntity
  8
detail
 62
    16
  6
CONTINUOUS
370
     5
100
AcDbLine
 10
1.83648081
 20
-5.57717794
 30
0.0
 11
1.83648081
 21
-5.57750294
 31
0.0
  0
LINE
  5
26E
100
AcDbEntity
  8
detail
 62
    16
  6
CONTINUOUS
370
     5
100
AcDbLine
 10
1.84548081
 20
-5.57750294
 30
0.0
 11
1.84548081
 21
-5.57717794
 31
0.0
  0
LINE
  5
26F
100
AcDbEntity
  8
detail
 62
    16
  6
CONTINUOUS
370
     5
100
AcDbLine
 10
1.83648081
 20
-5.58335794
 30
0.0
 11
1.84548081
 21
-5.58335794
 31
0.0
  0
LINE
  5
270
100
AcDbEntity
  8
detail
 62
    16
  6
CONTINUOUS
370
     5
100
AcDbLine
 10
1.83708081
 20
-5.58380685
 30
0.0
 11
1.83708081
 21
-5.58290904
 31
0.0
  0
LINE
  5
271
100
AcDbEntity
  8
detail
 62
    16
  6
CONTINUOUS
370
     5
100
AcDbLine
 10
1.84498081
 20
-5.58380685
 30
0.0
 11
1.84498081
 21
-5.58290904
 31
0.0
  0
LINE
  5
272
100
AcDbEntity
  8
detail
 62
    16
  6
CONTINUOUS
370
     5
100
AcDbLine
 10
1.84548081
 20
-5.58352794
 30
0.0
 11
1.84428455
 21
-5.58352794
 31
0.0
  0
LINE
  5
273
100
AcDbEntity
  8
detail
 62
    16
  6
CONTINUOUS
370
     5
100
AcDbLine
 10
1.83740081
 20
-5.58335794
 30
0.0
 11
1.83740081
 21
-5.58305794
 31
0.0
  0
LINE
  5
274
100
AcDbEntity
  8
detail
 62
    16
  6
CONTINUOUS
370
     5
100
AcDbLine
 10
1.83740081
 20
-5.58305794
 30
0.0
 11
1.83676081
 21
-5.58305794
 31
0.0
  0
LINE
  5
275
100
AcDbEntity
  8
detail
 62
    16
  6
CONTINUOUS
370
     5
100
AcDbLine
 10
1.83676081
 20
-5.58335794
 30
0.0
 11
1.83676081
 21
-5.58305794
 31
0.0
  0
LINE
  5
276
100
AcDbEntity
  8
detail
 62
    16
  6
CONTINUOUS
370
     5
100
AcDbLine
 10
1.84530081
 20
-5.58335794
 30
0.0
 11
1.84530081
 21
-5.58305794
 31
0.0
  0
LINE
  5
277
100
AcDbEntity
  8
detail
 62
    16
  6
CONTINUOUS
370
     5
100
AcDbLine
 10
1.84530081
 20
-5.58305794
 30
0.0
 11
1.84466081
 21
-5.58305794
 31
0.0
  0
LINE
  5
278
100
AcDbEntity
  8
detail
 62
    16
  6
CONTINUOUS
370
     5
100
AcDbLine
 10
1.84466081
 20
-5.58335794
 30
0.0
 11
1.84466081
 21
-5.58305794
 31
0.0
  0
LINE
  5
279
100
AcDbEntity
  8
detail
 62
    16
  6
CONTINUOUS
370
     5
100
AcDbLine
 10
1.83648081
 20
-5.58352794
 30
0.0
 11
1.83767708
 21
-5.58352794
 31
0.0
  0
LINE
  5
27A
100
AcDbEntity
  8
detail
 62
    16
  6
CONTINUOUS
370
     5
100
AcDbLine
 10
1.84432446
 20
-5.58488193
 30
0.0
 11
1.8442344
 21
-5.58357794
 31
0.0
  0
LINE
  5
27B
100
AcDbEntity
  8
detail
 62
    16
  6
CONTINUOUS
370
     5
100
AcDbLine
 10
1.83763716
 20
-5.58488193
 30
0.0
 11
1.83772722
 21
-5.58357794
 31
0.0
  0
LINE
  5
27C
100
AcDbEntity
  8
detail
 62
    16
  6
CONTINUOUS
370
     5
100
AcDbLine
 10
1.83648081
 20
-5.58347794
 30
0.0
 11
1.84548081
 21
-5.58347794
 31
0.0
  0
LINE
  5
27D
100
AcDbEntity
  8
detail
 62
    16
  6
CONTINUOUS
370
     5
100
AcDbLine
 10
1.83820581
 20
-5.57850294
 30
0.0
 11
1.83648081
 21
-5.57850294
 31
0.0
  0
LINE
  5
27E
100
AcDbEntity
  8
detail
 62
    16
  6
CONTINUOUS
370
     5
100
AcDbLine
 10
1.83820581
 20
-5.57905294
 30
0.0
 11
1.83648081
 21
-5.57905294
 31
0.0
  0
LINE
  5
27F
100
AcDbEntity
  8
detail
 62
    16
  6
CONTINUOUS
370
     5
100
AcDbLine
 10
1.83648081
 20
-5.58105294
 30
0.0
 11
1.83820581
 21
-5.58105294
 31
0.0
  0
LINE
  5
280
100
AcDbEntity
  8
detail
 62
    16
  6
CONTINUOUS
370
     5
100
AcDbLine
 10
1.83648081
 20
-5.58050294
 30
0.0
 11
1.83820581
 21
-5.58050294
 31
0.0
  0
LINE
  5
281
100
AcDbEntity
  8
detail
 62
    16
  6
CONTINUOUS
370
     5
100
AcDbLine
 10
1.83648081
 20
-5.58005294
 30
0.0
 11
1.83820581
 21
-5.58005294
 31
0.0
  0
LINE
  5
282
100
AcDbEntity
  8
detail
 62
    16
  6
CONTINUOUS
370
     5
100
AcDbLine
 10
1.83648081
 20
-5.57950294
 30
0.0
 11
1.83820581
 21
-5.57950294
 31
0.0
  0
LINE
  5
283
100
AcDbEntity
  8
detail
 62
    16
  6
CONTINUOUS
370
     5
100
AcDbLine
 10
1.84548081
 20
-5.57850294
 30
0.0
 11
1.84375581
 21
-5.57850294
 31
0.0
  0
LINE
  5
284
100
AcDbEntity
  8
detail
 62
    16
  6
CONTINUOUS
370
     5
100
AcDbLine
 10
1.84548081
 20
-5.57905294
 30
0.0
 11
1.84375581
 21
-5.57905294
 31
0.0
  0
LINE
  5
285
100
AcDbEntity
  8
detail
 62
    16
  6
CONTINUOUS
370
     5
100
AcDbLine
 10
1.84375581
 20
-5.57950294
 30
0.0
 11
1.84548081
 21
-5.57950294
 31
0.0
  0
LINE
  5
286
100
AcDbEntity
  8
detail
 62
    16
  6
CONTINUOUS
370
     5
100
AcDbLine
 10
1.84348081
 20
-5.58077794
 30
0.0
 11
1.84348081
 21
-5.58077794
 31
0.0
  0
LINE
  5
287
100
AcDbEntity
  8
detail
 62
    16
  6
CONTINUOUS
370
     5
100
AcDbLine
 10
1.84548081
 20
-5.58050294
 30
0.0
 11
1.84375581
 21
-5.58050294
 31
0.0
  0
LINE
  5
288
100
AcDbEntity
  8
detail
 62
    16
  6
CONTINUOUS
370
     5
100
AcDbLine
 10
1.84548081
 20
-5.58105294
 30
0.0
 11
1.84375581
 21
-5.58105294
 31
0.0
  0
LINE
  5
289
100
AcDbEntity
  8
detail
 62
    16
  6
CONTINUOUS
370
     5
100
AcDbLine
 10
1.84548081
 20
-5.58005294
 30
0.0
 11
1.84375581
 21
-5.58005294
 31
0.0
  0
LINE
  5
28A
100
AcDbEntity
  8
detail
 62
    16
  6
CONTINUOUS
370
     5
100
AcDbLine
 10
1.84050581
 20
-5.57950294
 30
0.0
 11
1.84145581
 21
-5.57950294
 31
0.0
  0
LINE
  5
28B
100
AcDbEntity
  8
detail
 62
    16
  6
CONTINUOUS
370
     5
100
AcDbLine
 10
1.84050581
 20
-5.58005294
 30
0.0
 11
1.84145581
 21
-5.58005294
 31
0.0
  0
LINE
  5
28C
100
AcDbEntity
  8
detail
 62
    16
  6
CONTINUOUS
370
     5
100
AcDbLine
 10
1.84050581
 20
-5.58050294
 30
0.0
 11
1.84145581
 21
-5.58050294
 31
0.0
  0
LINE
  5
28D
100
AcDbEntity
  8
detail
 62
    16
  6
CONTINUOUS
370
     5
100
AcDbLine
 10
1.84050581
 20
-5.58105294
 30
0.0
 11
1.84145581
 21
-5.58105294
 31
0.0
  0
LINE
  5
28E
100
AcDbEntity
  8
detail
 62
    16
  6
CONTINUOUS
370
     5
100
AcDbLine
 10
1.84050581
 20
-5.57850294
 30
0.0
 11
1.84145581
 21
-5.57850294
 31
0.0
  0
LINE
  5
28F
100
AcDbEntity
  8
detail
 62
    16
  6
CONTINUOUS
370
     5
100
AcDbLine
 10
1.84050581
 20
-5.57905294
 30
0.0
 11
1.84145581
 21
-5.57905294
 31
0.0
  0
LINE
  5
290
100
AcDbEntity
  8
detail
 62
    16
  6
CONTINUOUS
370
     5
100
AcDbLine
 10
1.83648081
 20
-5.58050294
 30
0.0
 11
1.83648081
 21
-5.58005294
 31
0.0
  0
LINE
  5
291
100
AcDbEntity
  8
detail
 62
    16
  6
CONTINUOUS
370
     5
100
AcDbLine
 10
1.83648081
 20
-5.57950294
 30
0.0
 11
1.83648081
 21
-5.57905294
 31
0.0
  0
LINE
  5
292
100
AcDbEntity
  8
detail
 62
    16
  6
CONTINUOUS
370
     5
100
AcDbLine
 10
1.84548081
 20
-5.57905294
 30
0.0
 11
1.84548081
 21
-5.57950294
 31
0.0
  0
LINE
  5
293
100
AcDbEntity
  8
detail
 62
    16
  6
CONTINUOUS
370
     5
100
AcDbLine
 10
1.84548081
 20
-5.58050294
 30
0.0
 11
1.84548081
 21
-5.58005294
 31
0.0
  0
LINE
  5
294
100
AcDbEntity
  8
detail
 62
    16
  6
CONTINUOUS
370
     5
100
AcDbLine
 10
1.83648081
 20
-5.58347794
 30
0.0
 11
1.83648081
 21
-5.58105294
 31
0.0
  0
LINE
  5
295
100
AcDbEntity
  8
detail
 62
    16
  6
CONTINUOUS
370
     5
100
AcDbLine
 10
1.84548081
 20
-5.58347794
 30
0.0
 11
1.84548081
 21
-5.58105294
 31
0.0
  0
LINE
  5
296
100
AcDbEntity
  8
detail
 62
    16
  6
CONTINUOUS
370
     5
100
AcDbLine
 10
1.84548081
 20
-5.5857783
 30
0.0
 11
1.83648081
 21
-5.5857783
 31
0.0
  0
LINE
  5
297
100
AcDbEntity
  8
detail
 62
    16
  6
CONTINUOUS
370
     5
100
AcDbLine
 10
1.83648081
 20
-5.5857783
 30
0.0
 11
1.83648081
 21
-5.58573166
 31
0.0
  0
LINE
  5
298
100
AcDbEntity
  8
detail
 62
    16
  6
CONTINUOUS
370
     5
100
AcDbLine
 10
1.83648081
 20
-5.58573166
 30
0.0
 11
1.83654048
 21
-5.5856283
 31
0.0
  0
LINE
  5
299
100
AcDbEntity
  8
detail
 62
    16
  6
CONTINUOUS
370
     5
100
AcDbLine
 10
1.84548081
 20
-5.5857783
 30
0.0
 11
1.84548081
 21
-5.58573166
 31
0.0
  0
LINE
  5
29A
100
AcDbEntity
  8
detail
 62
    16
  6
CONTINUOUS
370
     5
100
AcDbLine
 10
1.84548081
 20
-5.58573166
 30
0.0
 11
1.84542114
 21
-5.5856283
 31
0.0
  0
LINE
  5
29B
100
AcDbEntity
  8
detail
 62
    16
  6
CONTINUOUS
370
     5
100
AcDbLine
 10
1.84542114
 20
-5.5856283
 30
0.0
 11
1.83654048
 21
-5.5856283
 31
0.0
  0
LINE
  5
29C
100
AcDbEntity
  8
detail
 62
    16
  6
CONTINUOUS
370
     5
100
AcDbLine
 10
1.83864458
 20
-5.58435254
 30
0.0
 11
1.83864458
 21
-5.5856283
 31
0.0
  0
LINE
  5
29D
100
AcDbEntity
  8
detail
 62
    16
  6
CONTINUOUS
370
     5
100
AcDbLine
 10
1.83864458
 20
-5.58435254
 30
0.0
 11
1.83818132
 21
-5.58435254
 31
0.0
  0
LINE
  5
29E
100
AcDbEntity
  8
detail
 62
    16
  6
CONTINUOUS
370
     5
100
AcDbLine
 10
1.83854458
 20
-5.58445254
 30
0.0
 11
1.83854458
 21
-5.5856283
 31
0.0
  0
LINE
  5
29F
100
AcDbEntity
  8
detail
 62
    16
  6
CONTINUOUS
370
     5
100
AcDbLine
 10
1.843444
 20
-5.58445254
 30
0.0
 11
1.843444
 21
-5.5856283
 31
0.0
  0
LINE
  5
2A0
100
AcDbEntity
  8
detail
 62
    16
  6
CONTINUOUS
370
     5
100
AcDbLine
 10
1.8379567
 20
-5.58445254
 30
0.0
 11
1.83854458
 21
-5.58386467
 31
0.0
  0
LINE
  5
2A1
100
AcDbEntity
  8
detail
 62
    16
  6
CONTINUOUS
370
     5
100
AcDbLine
 10
1.83854458
 20
-5.58445254
 30
0.0
 11
1.8379567
 21
-5.58445254
 31
0.0
  0
LINE
  5
2A2
100
AcDbEntity
  8
detail
 62
    16
  6
CONTINUOUS
370
     5
100
AcDbLine
 10
1.84403188
 20
-5.58445254
 30
0.0
 11
1.843444
 21
-5.58386467
 31
0.0
  0
LINE
  5
2A3
100
AcDbEntity
  8
detail
 62
    16
  6
CONTINUOUS
370
     5
100
AcDbLine
 10
1.843444
 20
-5.58445254
 30
0.0
 11
1.84403188
 21
-5.58445254
 31
0.0
  0
LINE
  5
2A4
100
AcDbEntity
  8
detail
 62
    16
  6
CONTINUOUS
370
     5
100
AcDbLine
 10
1.83818132
 20
-5.58435489
 30
0.0
 11
1.83860806
 21
-5.58392815
 31
0.0
  0
LINE
  5
2A5
100
AcDbEntity
  8
detail
 62
    16
  6
CONTINUOUS
370
     5
100
AcDbLine
 10
1.84334403
 20
-5.58435254
 30
0.0
 11
1.84334403
 21
-5.5856283
 31
0.0
  0
LINE
  5
2A6
100
AcDbEntity
  8
detail
 62
    16
  6
CONTINUOUS
370
     5
100
AcDbLine
 10
1.84334403
 20
-5.58435254
 30
0.0
 11
1.84380729
 21
-5.58435254
 31
0.0
  0
LINE
  5
2A7
100
AcDbEntity
  8
detail
 62
    16
  6
CONTINUOUS
370
     5
100
AcDbLine
 10
1.84380729
 20
-5.58435489
 30
0.0
 11
1.84338055
 21
-5.58392815
 31
0.0
  0
LINE
  5
2A8
100
AcDbEntity
  8
detail
 62
    16
  6
CONTINUOUS
370
     5
100
AcDbLine
 10
1.83099621
 20
-5.5827511
 30
0.0
 11
1.83099621
 21
-5.56530472
 31
0.0
  0
LINE
  5
2A9
100
AcDbEntity
  8
detail
 62
    16
  6
CONTINUOUS
370
     5
100
AcDbLine
 10
1.84089332
 20
-5.57075991
 30
0.0
 11
1.84154581
 21
-5.57141241
 31
0.0
  0
LINE
  5
2AA
100
AcDbEntity
  8
detail
 62
    16
  6
CONTINUOUS
370
     5
100
AcDbLine
 10
1.84037983
 20
-5.57036165
 30
0.0
 11
1.84154581
 21
-5.57152763
 31
0.0
  0
LINE
  5
2AB
100
AcDbEntity
  8
detail
 62
    16
  6
CONTINUOUS
370
     5
100
AcDbLine
 10
1.84136002
 20
-5.5709457
 30
0.0
 11
1.84096733
 21
-5.5713384
 31
0.0
  0
LINE
  5
2AC
100
AcDbEntity
  8
detail
 62
    16
  6
CONTINUOUS
370
     5
100
AcDbLine
 10
1.84042
 20
-5.57049301
 30
0.0
 11
1.84150022
 21
-5.57157323
 31
0.0
  0
LINE
  5
2AD
100
AcDbEntity
  8
detail
 62
    16
  6
CONTINUOUS
370
     5
100
AcDbLine
 10
1.84154581
 20
-5.57152763
 30
0.0
 11
1.84149742
 21
-5.57157602
 31
0.0
  0
LINE
  5
2AE
100
AcDbEntity
  8
detail
 62
    16
  6
CONTINUOUS
370
     5
100
AcDbLine
 10
1.83139246
 20
-5.57320373
 30
0.0
 11
1.83137812
 21
-5.57282653
 31
0.0
  0
LINE
  5
2AF
100
AcDbEntity
  8
detail
 62
    16
  6
CONTINUOUS
370
     5
100
AcDbLine
 10
1.83136171
 20
-5.5732786
 30
0.0
 11
1.83137832
 21
-5.57282102
 31
0.0
  0
LINE
  5
2B0
100
AcDbEntity
  8
detail
 62
    16
  6
CONTINUOUS
370
     5
100
AcDbLine
 10
1.83125643
 20
-5.57337522
 30
0.0
 11
1.83133293
 21
-5.57332803
 31
0.0
  0
LINE
  5
2B1
100
AcDbEntity
  8
detail
 62
    16
  6
CONTINUOUS
370
     5
100
AcDbLine
 10
1.8313545
 20
-5.57696403
 30
0.0
 11
1.83136371
 21
-5.5764426
 31
0.0
  0
LINE
  5
2B2
100
AcDbEntity
  8
detail
 62
    16
  6
CONTINUOUS
370
     5
100
AcDbLine
 10
1.83132754
 20
-5.57696356
 30
0.0
 11
1.83133676
 21
-5.57644213
 31
0.0
  0
LINE
  5
2B3
100
AcDbEntity
  8
detail
 62
    16
  6
CONTINUOUS
370
     5
100
AcDbLine
 10
1.8314429
 20
-5.57323356
 30
0.0
 11
1.83158056
 21
-5.57327716
 31
0.0
  0
LINE
  5
2B4
100
AcDbEntity
  8
detail
 62
    16
  6
CONTINUOUS
370
     5
100
AcDbLine
 10
1.83143476
 20
-5.57325926
 30
0.0
 11
1.83157242
 21
-5.57330286
 31
0.0
  0
LINE
  5
2B5
100
AcDbEntity
  8
detail
 62
    16
  6
CONTINUOUS
370
     5
100
AcDbLine
 10
1.83153353
 20
-5.57700858
 30
0.0
 11
1.83147515
 21
-5.57697754
 31
0.0
  0
LINE
  5
2B6
100
AcDbEntity
  8
detail
 62
    16
  6
CONTINUOUS
370
     5
100
AcDbLine
 10
1.83154939
 20
-5.57698482
 30
0.0
 11
1.83149101
 21
-5.57695379
 31
0.0
  0
LINE
  5
2B7
100
AcDbEntity
  8
detail
 62
    16
  6
CONTINUOUS
370
     5
100
AcDbLine
 10
1.83182091
 20
-5.5764548
 30
0.0
 11
1.83181628
 21
-5.57680846
 31
0.0
  0
LINE
  5
2B8
100
AcDbEntity
  8
detail
 62
    16
  6
CONTINUOUS
370
     5
100
AcDbLine
 10
1.83160451
 20
-5.57695489
 30
0.0
 11
1.83159952
 21
-5.57696872
 31
0.0
  0
LINE
  5
2B9
100
AcDbEntity
  8
detail
 62
    16
  6
CONTINUOUS
370
     5
100
AcDbLine
 10
1.83156525
 20
-5.57696106
 30
0.0
 11
1.83149911
 21
-5.57692807
 31
0.0
  0
LINE
  5
2BA
100
AcDbEntity
  8
detail
 62
    16
  6
CONTINUOUS
370
     5
100
AcDbLine
 10
1.83179395
 20
-5.57645445
 30
0.0
 11
1.83178781
 21
-5.57681072
 31
0.0
  0
LINE
  5
2BB
100
AcDbEntity
  8
detail
 62
    16
  6
CONTINUOUS
370
     5
100
AcDbLine
 10
1.83178781
 20
-5.57681072
 30
0.0
 11
1.83178139
 21
-5.57645438
 31
0.0
  0
LINE
  5
2BC
100
AcDbEntity
  8
detail
 62
    16
  6
CONTINUOUS
370
     5
100
AcDbLine
 10
1.83175933
 20
-5.57681298
 30
0.0
 11
1.83175443
 21
-5.57645475
 31
0.0
  0
LINE
  5
2BD
100
AcDbEntity
  8
detail
 62
    16
  6
CONTINUOUS
370
     5
100
AcDbLine
 10
1.8315149
 20
-5.57690805
 30
0.0
 11
1.83160451
 21
-5.57695489
 31
0.0
  0
LINE
  5
2BE
100
AcDbEntity
  8
detail
 62
    16
  6
CONTINUOUS
370
     5
100
AcDbLine
 10
1.83117879
 20
-5.57854261
 30
0.0
 11
1.83115979
 21
-5.57849499
 31
0.0
  0
LINE
  5
2BF
100
AcDbEntity
  8
detail
 62
    16
  6
CONTINUOUS
370
     5
100
AcDbLine
 10
1.83118455
 20
-5.57859534
 30
0.0
 11
1.83120808
 21
-5.57854326
 31
0.0
  0
LINE
  5
2C0
100
AcDbEntity
  8
detail
 62
    16
  6
CONTINUOUS
370
     5
100
AcDbLine
 10
1.83120808
 20
-5.57854326
 30
0.0
 11
1.8311869
 21
-5.57849019
 31
0.0
  0
LINE
  5
2C1
100
AcDbEntity
  8
detail
 62
    16
  6
CONTINUOUS
370
     5
100
AcDbLine
 10
1.83122576
 20
-5.57969147
 30
0.0
 11
1.83125246
 21
-5.57973524
 31
0.0
  0
LINE
  5
2C2
100
AcDbEntity
  8
detail
 62
    16
  6
CONTINUOUS
370
     5
100
AcDbLine
 10
1.83125246
 20
-5.57973524
 30
0.0
 11
1.83123946
 21
-5.57978484
 31
0.0
  0
LINE
  5
2C3
100
AcDbEntity
  8
detail
 62
    16
  6
CONTINUOUS
370
     5
100
AcDbLine
 10
1.83128145
 20
-5.57973099
 30
0.0
 11
1.83126696
 21
-5.57978626
 31
0.0
  0
LINE
  5
2C4
100
AcDbEntity
  8
detail
 62
    16
  6
CONTINUOUS
370
     5
100
AcDbLine
 10
1.83125169
 20
-5.5796822
 30
0.0
 11
1.83128145
 21
-5.57973099
 31
0.0
  0
LINE
  5
2C5
100
AcDbEntity
  8
detail
 62
    16
  6
CONTINUOUS
370
     5
100
AcDbLine
 10
1.83130055
 20
-5.5773674
 30
0.0
 11
1.83137455
 21
-5.57731639
 31
0.0
  0
LINE
  5
2C6
100
AcDbEntity
  8
detail
 62
    16
  6
CONTINUOUS
370
     5
100
AcDbLine
 10
1.83138912
 20
-5.57728815
 30
0.0
 11
1.83138248
 21
-5.57683032
 31
0.0
  0
LINE
  5
2C7
100
AcDbEntity
  8
detail
 62
    16
  6
CONTINUOUS
370
     5
100
AcDbLine
 10
1.8316797
 20
-5.57687879
 30
0.0
 11
1.83167902
 21
-5.57682622
 31
0.0
  0
LINE
  5
2C8
100
AcDbEntity
  8
detail
 62
    16
  6
CONTINUOUS
370
     5
100
AcDbLine
 10
1.83174514
 20
-5.57687205
 30
0.0
 11
1.83173066
 21
-5.57679781
 31
0.0
  0
LINE
  5
2C9
100
AcDbEntity
  8
detail
 62
    16
  6
CONTINUOUS
370
     5
100
AcDbLine
 10
1.83171867
 20
-5.57687719
 30
0.0
 11
1.83170317
 21
-5.57679895
 31
0.0
  0
LINE
  5
2CA
100
AcDbEntity
  8
detail
 62
    16
  6
CONTINUOUS
370
     5
100
AcDbLine
 10
1.83170666
 20
-5.57687858
 30
0.0
 11
1.83170402
 21
-5.57680374
 31
0.0
  0
LINE
  5
2CB
100
AcDbEntity
  8
detail
 62
    16
  6
CONTINUOUS
370
     5
100
AcDbLine
 10
1.83146985
 20
-5.57720903
 30
0.0
 11
1.83143686
 21
-5.57683853
 31
0.0
  0
LINE
  5
2CC
100
AcDbEntity
  8
detail
 62
    16
  6
CONTINUOUS
370
     5
100
AcDbLine
 10
1.83144299
 20
-5.57721142
 30
0.0
 11
1.83140952
 21
-5.57683543
 31
0.0
  0
LINE
  5
2CD
100
AcDbEntity
  8
detail
 62
    16
  6
CONTINUOUS
370
     5
100
AcDbLine
 10
1.83141608
 20
-5.57728776
 30
0.0
 11
1.83140944
 21
-5.57682993
 31
0.0
  0
LINE
  5
2CE
100
AcDbEntity
  8
detail
 62
    16
  6
CONTINUOUS
370
     5
100
AcDbLine
 10
1.83131585
 20
-5.5773896
 30
0.0
 11
1.83138985
 21
-5.57733858
 31
0.0
  0
LINE
  5
2CF
100
AcDbEntity
  8
detail
 62
    16
  6
CONTINUOUS
370
     5
100
AcDbLine
 10
1.83159604
 20
-5.5809688
 30
0.0
 11
1.83157876
 21
-5.58044758
 31
0.0
  0
LINE
  5
2D0
100
AcDbEntity
  8
detail
 62
    16
  6
CONTINUOUS
370
     5
100
AcDbLine
 10
1.83156909
 20
-5.5809697
 30
0.0
 11
1.83155181
 21
-5.58044847
 31
0.0
  0
LINE
  5
2D1
100
AcDbEntity
  8
detail
 62
    16
  6
CONTINUOUS
370
     5
100
AcDbLine
 10
1.83149488
 20
-5.57723865
 30
0.0
 11
1.83163458
 21
-5.5772752
 31
0.0
  0
LINE
  5
2D2
100
AcDbEntity
  8
detail
 62
    16
  6
CONTINUOUS
370
     5
100
AcDbLine
 10
1.83148806
 20
-5.57726473
 30
0.0
 11
1.83162776
 21
-5.57730129
 31
0.0
  0
LINE
  5
2D3
100
AcDbEntity
  8
detail
 62
    16
  6
CONTINUOUS
370
     5
100
AcDbLine
 10
1.8317771
 20
-5.5810042
 30
0.0
 11
1.83171722
 21
-5.58097617
 31
0.0
  0
LINE
  5
2D4
100
AcDbEntity
  8
detail
 62
    16
  6
CONTINUOUS
370
     5
100
AcDbLine
 10
1.83179173
 20
-5.58097967
 30
0.0
 11
1.83173185
 21
-5.58095164
 31
0.0
  0
LINE
  5
2D5
100
AcDbEntity
  8
detail
 62
    16
  6
CONTINUOUS
370
     5
100
AcDbLine
 10
1.83203598
 20
-5.58043654
 30
0.0
 11
1.83204932
 21
-5.58078998
 31
0.0
  0
LINE
  5
2D6
100
AcDbEntity
  8
detail
 62
    16
  6
CONTINUOUS
370
     5
100
AcDbLine
 10
1.83184526
 20
-5.58094698
 30
0.0
 11
1.83184098
 21
-5.58096104
 31
0.0
  0
LINE
  5
2D7
100
AcDbEntity
  8
detail
 62
    16
  6
CONTINUOUS
370
     5
100
AcDbLine
 10
1.83180637
 20
-5.58095513
 30
0.0
 11
1.83173863
 21
-5.58092554
 31
0.0
  0
LINE
  5
2D8
100
AcDbEntity
  8
detail
 62
    16
  6
CONTINUOUS
370
     5
100
AcDbLine
 10
1.83200904
 20
-5.58043756
 30
0.0
 11
1.832021
 21
-5.58079368
 31
0.0
  0
LINE
  5
2D9
100
AcDbEntity
  8
detail
 62
    16
  6
CONTINUOUS
370
     5
100
AcDbLine
 10
1.832021
 20
-5.58079368
 30
0.0
 11
1.83199649
 21
-5.58043813
 31
0.0
  0
LINE
  5
2DA
100
AcDbEntity
  8
detail
 62
    16
  6
CONTINUOUS
370
     5
100
AcDbLine
 10
1.83199267
 20
-5.58079738
 30
0.0
 11
1.83196959
 21
-5.58043986
 31
0.0
  0
LINE
  5
2DB
100
AcDbEntity
  8
detail
 62
    16
  6
CONTINUOUS
370
     5
100
AcDbLine
 10
1.83175339
 20
-5.58090475
 30
0.0
 11
1.83184526
 21
-5.58094698
 31
0.0
  0
LINE
  5
2DC
100
AcDbEntity
  8
detail
 62
    16
  6
CONTINUOUS
370
     5
100
AcDbLine
 10
1.83162925
 20
-5.58924509
 30
0.0
 11
1.83164586
 21
-5.58878751
 31
0.0
  0
LINE
  5
2DD
100
AcDbEntity
  8
detail
 62
    16
  6
CONTINUOUS
370
     5
100
AcDbLine
 10
1.83194024
 20
-5.58885101
 30
0.0
 11
1.83194223
 21
-5.58879848
 31
0.0
  0
LINE
  5
2DE
100
AcDbEntity
  8
detail
 62
    16
  6
CONTINUOUS
370
     5
100
AcDbLine
 10
1.83200594
 20
-5.5888476
 30
0.0
 11
1.83199525
 21
-5.58877273
 31
0.0
  0
LINE
  5
2DF
100
AcDbEntity
  8
detail
 62
    16
  6
CONTINUOUS
370
     5
100
AcDbLine
 10
1.83197924
 20
-5.58885139
 30
0.0
 11
1.83196773
 21
-5.58877247
 31
0.0
  0
LINE
  5
2E0
100
AcDbEntity
  8
detail
 62
    16
  6
CONTINUOUS
370
     5
100
AcDbLine
 10
1.83196717
 20
-5.58885217
 30
0.0
 11
1.83196834
 21
-5.5887773
 31
0.0
  0
LINE
  5
2E1
100
AcDbEntity
  8
detail
 62
    16
  6
CONTINUOUS
370
     5
100
AcDbLine
 10
1.83171389
 20
-5.58917017
 30
0.0
 11
1.83169976
 21
-5.58879847
 31
0.0
  0
LINE
  5
2E2
100
AcDbEntity
  8
detail
 62
    16
  6
CONTINUOUS
370
     5
100
AcDbLine
 10
1.83168694
 20
-5.5891712
 30
0.0
 11
1.83167261
 21
-5.58879399
 31
0.0
  0
LINE
  5
2E3
100
AcDbEntity
  8
detail
 62
    16
  6
CONTINUOUS
370
     5
100
AcDbLine
 10
1.83165619
 20
-5.58924607
 30
0.0
 11
1.83167281
 21
-5.58878849
 31
0.0
  0
LINE
  5
2E4
100
AcDbEntity
  8
detail
 62
    16
  6
CONTINUOUS
370
     5
100
AcDbLine
 10
1.83131822
 20
-5.58653136
 30
0.0
 11
1.83134168
 21
-5.58648577
 31
0.0
  0
LINE
  5
2E5
100
AcDbEntity
  8
detail
 62
    16
  6
CONTINUOUS
370
     5
100
AcDbLine
 10
1.83134168
 20
-5.58648577
 30
0.0
 11
1.83132512
 21
-5.58643724
 31
0.0
  0
LINE
  5
2E6
100
AcDbEntity
  8
detail
 62
    16
  6
CONTINUOUS
370
     5
100
AcDbLine
 10
1.83134475
 20
-5.58653872
 30
0.0
 11
1.8313709
 21
-5.58648791
 31
0.0
  0
LINE
  5
2E7
100
AcDbEntity
  8
detail
 62
    16
  6
CONTINUOUS
370
     5
100
AcDbLine
 10
1.8313709
 20
-5.58648791
 30
0.0
 11
1.83135244
 21
-5.58643383
 31
0.0
  0
LINE
  5
2E8
100
AcDbEntity
  8
detail
 62
    16
  6
CONTINUOUS
370
     5
100
AcDbLine
 10
1.83133024
 20
-5.58763553
 30
0.0
 11
1.83135469
 21
-5.5876806
 31
0.0
  0
LINE
  5
2E9
100
AcDbEntity
  8
detail
 62
    16
  6
CONTINUOUS
370
     5
100
AcDbLine
 10
1.83135469
 20
-5.5876806
 30
0.0
 11
1.83133919
 21
-5.58772947
 31
0.0
  0
LINE
  5
2EA
100
AcDbEntity
  8
detail
 62
    16
  6
CONTINUOUS
370
     5
100
AcDbLine
 10
1.83138386
 20
-5.58767783
 30
0.0
 11
1.83136658
 21
-5.5877323
 31
0.0
  0
LINE
  5
2EB
100
AcDbEntity
  8
detail
 62
    16
  6
CONTINUOUS
370
     5
100
AcDbLine
 10
1.83135661
 20
-5.5876276
 30
0.0
 11
1.83138386
 21
-5.58767783
 31
0.0
  0
LINE
  5
2EC
100
AcDbEntity
  8
detail
 62
    16
  6
CONTINUOUS
370
     5
100
AcDbLine
 10
1.83152296
 20
-5.58531826
 30
0.0
 11
1.83159946
 21
-5.58527107
 31
0.0
  0
LINE
  5
2ED
100
AcDbEntity
  8
detail
 62
    16
  6
CONTINUOUS
370
     5
100
AcDbLine
 10
1.83161545
 20
-5.58524361
 30
0.0
 11
1.83163206
 21
-5.58478603
 31
0.0
  0
LINE
  5
2EE
100
AcDbEntity
  8
detail
 62
    16
  6
CONTINUOUS
370
     5
100
AcDbLine
 10
1.83192643
 20
-5.58484953
 30
0.0
 11
1.83192843
 21
-5.584797
 31
0.0
  0
LINE
  5
2EF
100
AcDbEntity
  8
detail
 62
    16
  6
CONTINUOUS
370
     5
100
AcDbLine
 10
1.83199213
 20
-5.58484612
 30
0.0
 11
1.83198144
 21
-5.58477125
 31
0.0
  0
LINE
  5
2F0
100
AcDbEntity
  8
detail
 62
    16
  6
CONTINUOUS
370
     5
100
AcDbLine
 10
1.83196544
 20
-5.58484991
 30
0.0
 11
1.83195393
 21
-5.58477099
 31
0.0
  0
LINE
  5
2F1
100
AcDbEntity
  8
detail
 62
    16
  6
CONTINUOUS
370
     5
100
AcDbLine
 10
1.83195337
 20
-5.5848507
 30
0.0
 11
1.83195453
 21
-5.58477582
 31
0.0
  0
LINE
  5
2F2
100
AcDbEntity
  8
detail
 62
    16
  6
CONTINUOUS
370
     5
100
AcDbLine
 10
1.83170008
 20
-5.58516869
 30
0.0
 11
1.83168595
 21
-5.584797
 31
0.0
  0
LINE
  5
2F3
100
AcDbEntity
  8
detail
 62
    16
  6
CONTINUOUS
370
     5
100
AcDbLine
 10
1.83167314
 20
-5.58516972
 30
0.0
 11
1.8316588
 21
-5.58479251
 31
0.0
  0
LINE
  5
2F4
100
AcDbEntity
  8
detail
 62
    16
  6
CONTINUOUS
370
     5
100
AcDbLine
 10
1.83164239
 20
-5.58524459
 30
0.0
 11
1.831659
 21
-5.58478701
 31
0.0
  0
LINE
  5
2F5
100
AcDbEntity
  8
detail
 62
    16
  6
CONTINUOUS
370
     5
100
AcDbLine
 10
1.83153712
 20
-5.58534121
 30
0.0
 11
1.83161361
 21
-5.58529402
 31
0.0
  0
LINE
  5
2F6
100
AcDbEntity
  8
detail
 62
    16
  6
CONTINUOUS
370
     5
100
AcDbLine
 10
1.83163518
 20
-5.58893002
 30
0.0
 11
1.83164439
 21
-5.58840859
 31
0.0
  0
LINE
  5
2F7
100
AcDbEntity
  8
detail
 62
    16
  6
CONTINUOUS
370
     5
100
AcDbLine
 10
1.83160822
 20
-5.58892955
 30
0.0
 11
1.83161744
 21
-5.58840811
 31
0.0
  0
LINE
  5
2F8
100
AcDbEntity
  8
detail
 62
    16
  6
CONTINUOUS
370
     5
100
AcDbLine
 10
1.83172358
 20
-5.58519954
 30
0.0
 11
1.83186124
 21
-5.58524315
 31
0.0
  0
LINE
  5
2F9
100
AcDbEntity
  8
detail
 62
    16
  6
CONTINUOUS
370
     5
100
AcDbLine
 10
1.83171544
 20
-5.58522525
 30
0.0
 11
1.8318531
 21
-5.58526885
 31
0.0
  0
LINE
  5
2FA
100
AcDbEntity
  8
detail
 62
    16
  6
CONTINUOUS
370
     5
100
AcDbLine
 10
1.83181421
 20
-5.58897457
 30
0.0
 11
1.83175584
 21
-5.58894353
 31
0.0
  0
LINE
  5
2FB
100
AcDbEntity
  8
detail
 62
    16
  6
CONTINUOUS
370
     5
100
AcDbLine
 10
1.83183007
 20
-5.58895081
 30
0.0
 11
1.83177169
 21
-5.58891977
 31
0.0
  0
LINE
  5
2FC
100
AcDbEntity
  8
detail
 62
    16
  6
CONTINUOUS
370
     5
100
AcDbLine
 10
1.83210159
 20
-5.58842079
 30
0.0
 11
1.83209696
 21
-5.58877445
 31
0.0
  0
LINE
  5
2FD
100
AcDbEntity
  8
detail
 62
    16
  6
CONTINUOUS
370
     5
100
AcDbLine
 10
1.83188519
 20
-5.58892088
 30
0.0
 11
1.8318802
 21
-5.58893471
 31
0.0
  0
LINE
  5
2FE
100
AcDbEntity
  8
detail
 62
    16
  6
CONTINUOUS
370
     5
100
AcDbLine
 10
1.83184593
 20
-5.58892705
 30
0.0
 11
1.83177979
 21
-5.58889406
 31
0.0
  0
LINE
  5
2FF
100
AcDbEntity
  8
detail
 62
    16
  6
CONTINUOUS
370
     5
100
AcDbLine
 10
1.83207463
 20
-5.58842044
 30
0.0
 11
1.83206849
 21
-5.58877671
 31
0.0
  0
LINE
  5
300
100
AcDbEntity
  8
detail
 62
    16
  6
CONTINUOUS
370
     5
100
AcDbLine
 10
1.83206849
 20
-5.58877671
 30
0.0
 11
1.83206207
 21
-5.58842037
 31
0.0
  0
LINE
  5
301
100
AcDbEntity
  8
detail
 62
    16
  6
CONTINUOUS
370
     5
100
AcDbLine
 10
1.83204001
 20
-5.58877897
 30
0.0
 11
1.83203511
 21
-5.58842073
 31
0.0
  0
LINE
  5
302
100
AcDbEntity
  8
detail
 62
    16
  6
CONTINUOUS
370
     5
100
AcDbLine
 10
1.83179558
 20
-5.58887404
 30
0.0
 11
1.83188519
 21
-5.58892088
 31
0.0
  0
LINE
  5
303
100
AcDbEntity
  8
detail
 62
    16
  6
CONTINUOUS
370
     5
100
AcDbLine
 10
1.83611629
 20
-5.57205369
 30
0.0
 11
1.83784493
 21
-5.57032505
 31
0.0
  0
LINE
  5
304
100
AcDbEntity
  8
detail
 62
    16
  6
CONTINUOUS
370
     5
100
AcDbLine
 10
1.83784493
 20
-5.57032505
 30
0.0
 11
1.84028959
 21
-5.57032505
 31
0.0
  0
LINE
  5
305
100
AcDbEntity
  8
detail
 62
    16
  6
CONTINUOUS
370
     5
100
AcDbLine
 10
1.84028959
 20
-5.57032505
 30
0.0
 11
1.84201823
 21
-5.57205369
 31
0.0
  0
LINE
  5
306
100
AcDbEntity
  8
detail
 62
    16
  6
CONTINUOUS
370
     5
100
AcDbLine
 10
1.84201823
 20
-5.57205369
 30
0.0
 11
1.84201823
 21
-5.57449835
 31
0.0
  0
LINE
  5
307
100
AcDbEntity
  8
detail
 62
    16
  6
CONTINUOUS
370
     5
100
AcDbLine
 10
1.84201823
 20
-5.57449835
 30
0.0
 11
1.84028959
 21
-5.57622699
 31
0.0
  0
LINE
  5
308
100
AcDbEntity
  8
detail
 62
    16
  6
CONTINUOUS
370
     5
100
AcDbLine
 10
1.84028959
 20
-5.57622699
 30
0.0
 11
1.83784493
 21
-5.57622699
 31
0.0
  0
LINE
  5
309
100
AcDbEntity
  8
detail
 62
    16
  6
CONTINUOUS
370
     5
100
AcDbLine
 10
1.83784493
 20
-5.57622699
 30
0.0
 11
1.83611629
 21
-5.57449835
 31
0.0
  0
LINE
  5
30A
100
AcDbEntity
  8
detail
 62
    16
  6
CONTINUOUS
370
     5
100
AcDbLine
 10
1.83625517
 20
-5.57444082
 30
0.0
 11
1.83625517
 21
-5.57211121
 31
0.0
  0
LINE
  5
30B
100
AcDbEntity
  8
detail
 62
    16
  6
CONTINUOUS
370
     5
100
AcDbLine
 10
1.83625517
 20
-5.57211121
 30
0.0
 11
1.83790245
 21
-5.57046393
 31
0.0
  0
LINE
  5
30C
100
AcDbEntity
  8
detail
 62
    16
  6
CONTINUOUS
370
     5
100
AcDbLine
 10
1.83790245
 20
-5.57046393
 30
0.0
 11
1.84023207
 21
-5.57046393
 31
0.0
  0
LINE
  5
30D
100
AcDbEntity
  8
detail
 62
    16
  6
CONTINUOUS
370
     5
100
AcDbLine
 10
1.84023207
 20
-5.57046393
 30
0.0
 11
1.84187935
 21
-5.57211121
 31
0.0
  0
LINE
  5
30E
100
AcDbEntity
  8
detail
 62
    16
  6
CONTINUOUS
370
     5
100
AcDbLine
 10
1.84187935
 20
-5.57211121
 30
0.0
 11
1.84187935
 21
-5.57444082
 31
0.0
  0
LINE
  5
30F
100
AcDbEntity
  8
detail
 62
    16
  6
CONTINUOUS
370
     5
100
AcDbLine
 10
1.84187935
 20
-5.57444082
 30
0.0
 11
1.84023207
 21
-5.57608811
 31
0.0
  0
LINE
  5
310
100
AcDbEntity
  8
detail
 62
    16
  6
CONTINUOUS
370
     5
100
AcDbLine
 10
1.84023207
 20
-5.57608811
 30
0.0
 11
1.83790245
 21
-5.57608811
 31
0.0
  0
LINE
  5
311
100
AcDbEntity
  8
detail
 62
    16
  6
CONTINUOUS
370
     5
100
AcDbLine
 10
1.83790245
 20
-5.57608811
 30
0.0
 11
1.83625517
 21
-5.57444082
 31
0.0
  0
LINE
  5
312
100
AcDbEntity
  8
detail
 62
    16
  6
CONTINUOUS
370
     5
100
AcDbLine
 10
1.84548081
 20
-5.57805294
 30
0.0
 11
1.84416929
 21
-5.57805294
 31
0.0
  0
LINE
  5
313
100
AcDbEntity
  8
detail
 62
    16
  6
CONTINUOUS
370
     5
100
AcDbLine
 10
1.83269878
 20
-5.58033469
 30
0.0
 11
1.83249664
 21
-5.58105029
 31
0.0
  0
LINE
  5
314
100
AcDbEntity
  8
detail
 62
    16
  6
CONTINUOUS
370
     5
100
AcDbLine
 10
1.83164679
 20
-5.5832967
 30
0.0
 11
1.83242074
 21
-5.5832967
 31
0.0
  0
LINE
  5
315
100
AcDbEntity
  8
detail
 62
    16
  6
CONTINUOUS
370
     5
100
AcDbLine
 10
1.83857736
 20
-5.57278612
 30
0.0
 11
1.83857736
 21
-5.57376592
 31
0.0
  0
LINE
  5
316
100
AcDbEntity
  8
detail
 62
    16
  6
CONTINUOUS
370
     5
100
AcDbLine
 10
1.83857736
 20
-5.57278612
 30
0.0
 11
1.83955716
 21
-5.57278612
 31
0.0
  0
LINE
  5
317
100
AcDbEntity
  8
detail
 62
    16
  6
CONTINUOUS
370
     5
100
AcDbLine
 10
1.83955716
 20
-5.57278612
 30
0.0
 11
1.83955716
 21
-5.57376592
 31
0.0
  0
LINE
  5
318
100
AcDbEntity
  8
detail
 62
    16
  6
CONTINUOUS
370
     5
100
AcDbLine
 10
1.83857736
 20
-5.57376592
 30
0.0
 11
1.83955716
 21
-5.57376592
 31
0.0
  0
LINE
  5
319
100
AcDbEntity
  8
detail
 62
    16
  6
CONTINUOUS
370
     5
100
AcDbLine
 10
1.83071529
 20
-5.5827511
 30
0.0
 11
1.83078324
 21
-5.58325533
 31
0.0
  0
ARC
  5
31A
100
AcDbEntity
  8
detail
 62
    16
  6
CONTINUOUS
370
     5
100
AcDbCircle
 10
1.83906726
 20
-5.57327602
 30
0.0
 40
0.0046
100
AcDbArc
 50
11.491649
 51
81.823224
  0
ARC
  5
31B
100
AcDbEntity
  8
detail
 62
    16
  6
CONTINUOUS
370
     5
100
AcDbCircle
 10
1.83906726
 20
-5.57327602
 30
0.0
 40
0.0039
100
AcDbArc
 50
89.461019
 51
3.853854
  0
ARC
  5
31C
100
AcDbEntity
  8
detail
 62
    16
  6
CONTINUOUS
370
     5
100
AcDbCircle
 10
1.83842163
 20
-5.58300926
 30
0.0
 40
0.00711054
100
AcDbArc
 50
185.86280002
 51
195.70969702
  0
ARC
  5
31D
100
AcDbEntity
  8
detail
 62
    16
  6
CONTINUOUS
370
     5
100
AcDbCircle
 10
1.83842163
 20
-5.58300926
 30
0.0
 40
0.0071375
100
AcDbArc
 50
176.187196
 51
185.06030502
  0
ARC
  5
31E
100
AcDbEntity
  8
detail
 62
    16
  6
CONTINUOUS
370
     5
100
AcDbCircle
 10
1.83842163
 20
-5.58300926
 30
0.0
 40
0.0071375
100
AcDbArc
 50
185.81781302
 51
195.70969702
  0
ARC
  5
31F
100
AcDbEntity
  8
detail
 62
    16
  6
CONTINUOUS
370
     5
100
AcDbCircle
 10
1.83181874
 20
-5.58130153
 30
0.0
 40
6.0662799994094E-05
100
AcDbArc
 50
329.61035302
 51
66.28708501
  0
ARC
  5
320
100
AcDbEntity
  8
detail
 62
    16
  6
CONTINUOUS
370
     5
100
AcDbCircle
 10
1.83182163
 20
-5.58130286
 30
0.0
 40
3.3701499997163E-05
100
AcDbArc
 50
1.20309698
 51
66.787993
  0
ARC
  5
321
100
AcDbEntity
  8
detail
 62
    16
  6
CONTINUOUS
370
     5
100
AcDbCircle
 10
1.83842163
 20
-5.58300926
 30
0.0
 40
0.0071375
100
AcDbArc
 50
166.632902
 51
175.429689
  0
ARC
  5
322
100
AcDbEntity
  8
detail
 62
    16
  6
CONTINUOUS
370
     5
100
AcDbCircle
 10
1.83842163
 20
-5.58300926
 30
0.0
 40
0.00711054
100
AcDbArc
 50
166.632902
 51
175.384715
  0
ARC
  5
323
100
AcDbEntity
  8
detail
 62
    16
  6
CONTINUOUS
370
     5
100
AcDbCircle
 10
1.83842163
 20
-5.58300926
 30
0.0
 40
0.00711054
100
AcDbArc
 50
176.232189
 51
185.01532502
  0
ARC
  5
324
100
AcDbEntity
  8
detail
 62
    16
  6
CONTINUOUS
370
     5
100
AcDbCircle
 10
1.83475678
 20
-5.58265671
 30
0.0
 40
0.00320208
100
AcDbArc
 50
154.974186
 51
211.95055102
  0
ARC
  5
325
100
AcDbEntity
  8
detail
 62
    16
  6
CONTINUOUS
370
     5
100
AcDbCircle
 10
1.83475678
 20
-5.58265671
 30
0.0
 40
0.00317516
100
AcDbArc
 50
155.345613
 51
211.97619202
  0
ARC
  5
326
100
AcDbEntity
  8
detail
 62
    16
  6
CONTINUOUS
370
     5
100
AcDbCircle
 10
1.83158319
 20
-5.58493271
 30
0.0
 40
3.3701500000809E-05
100
AcDbArc
 50
195.70969701
 51
358.98758501
  0
ARC
  5
327
100
AcDbEntity
  8
detail
 62
    16
  6
CONTINUOUS
370
     5
100
AcDbCircle
 10
1.83182153
 20
-5.58441533
 30
0.0
 40
0.00022243
100
AcDbArc
 50
357.45217302
 51
178.98758
  0
ARC
  5
328
100
AcDbEntity
  8
detail
 62
    16
  6
CONTINUOUS
370
     5
100
AcDbCircle
 10
1.83158319
 20
-5.58493271
 30
0.0
 40
6.7403000017073E-06
100
AcDbArc
 50
195.70969708
 51
358.98758502
  0
ARC
  5
329
100
AcDbEntity
  8
detail
 62
    16
  6
CONTINUOUS
370
     5
100
AcDbCircle
 10
1.83182153
 20
-5.58441533
 30
0.0
 40
0.00019547
100
AcDbArc
 50
357.45217302
 51
178.98758
  0
ARC
  5
32A
100
AcDbEntity
  8
detail
 62
    16
  6
CONTINUOUS
370
     5
100
AcDbCircle
 10
1.83192182
 20
-5.58441642
 30
0.0
 40
0.00013481
100
AcDbArc
 50
355.91910903
 51
28.92946498
  0
ARC
  5
32B
100
AcDbEntity
  8
detail
 62
    16
  6
CONTINUOUS
370
     5
100
AcDbCircle
 10
1.83192182
 20
-5.58441642
 30
0.0
 40
0.00016177
100
AcDbArc
 50
355.91910901
 51
28.92946501
  0
ARC
  5
32C
100
AcDbEntity
  8
detail
 62
    16
  6
CONTINUOUS
370
     5
100
AcDbCircle
 10
1.83178889
 20
-5.58079567
 30
0.0
 40
0.00017525
100
AcDbArc
 50
6.91623
 51
177.920678
  0
ARC
  5
32D
100
AcDbEntity
  8
detail
 62
    16
  6
CONTINUOUS
370
     5
100
AcDbCircle
 10
1.83178889
 20
-5.58079567
 30
0.0
 40
0.00014829
100
AcDbArc
 50
8.297827
 51
177.920678
  0
ARC
  5
32E
100
AcDbEntity
  8
detail
 62
    16
  6
CONTINUOUS
370
     5
100
AcDbCircle
 10
1.83178889
 20
-5.58079567
 30
0.0
 40
0.00012133
100
AcDbArc
 50
357.82107102
 51
182.17665402
  0
ARC
  5
32F
100
AcDbEntity
  8
detail
 62
    16
  6
CONTINUOUS
370
     5
100
AcDbCircle
 10
1.83194114
 20
-5.58085407
 30
0.0
 40
3.3027500000241E-05
100
AcDbArc
 50
177.82105899
 51
8.12421699
  0
ARC
  5
330
100
AcDbEntity
  8
detail
 62
    16
  6
CONTINUOUS
370
     5
100
AcDbCircle
 10
1.83194114
 20
-5.58085407
 30
0.0
 40
6.0663000026023E-06
100
AcDbArc
 50
179.11150104
 51
8.29782692
  0
ARC
  5
331
100
AcDbEntity
  8
detail
 62
    16
  6
CONTINUOUS
370
     5
100
AcDbCircle
 10
1.83171546
 20
-5.58117069
 30
0.0
 40
6.0662800046709E-05
100
AcDbArc
 50
182.17665405
 51
252.42508099
  0
ARC
  5
332
100
AcDbEntity
  8
detail
 62
    16
  6
CONTINUOUS
370
     5
100
AcDbCircle
 10
1.83171546
 20
-5.58117069
 30
0.0
 40
3.3701500020805E-05
100
AcDbArc
 50
182.17665403
 51
252.42508099
  0
ARC
  5
333
100
AcDbEntity
  8
detail
 62
    16
  6
CONTINUOUS
370
     5
100
AcDbCircle
 10
1.83156347
 20
-5.58124567
 30
0.0
 40
3.3701499922079E-05
100
AcDbArc
 50
301.66865796
 51
357.92068908
  0
ARC
  5
334
100
AcDbEntity
  8
detail
 62
    16
  6
CONTINUOUS
370
     5
100
AcDbCircle
 10
1.83153651
 20
-5.58137317
 30
0.0
 40
3.3701500069717E-05
100
AcDbArc
 50
121.66864705
 51
166.63290197
  0
ARC
  5
335
100
AcDbEntity
  8
detail
 62
    16
  6
CONTINUOUS
370
     5
100
AcDbCircle
 10
1.83156347
 20
-5.58124567
 30
0.0
 40
6.0662800025852E-05
100
AcDbArc
 50
301.66865802
 51
357.92068901
  0
ARC
  5
336
100
AcDbEntity
  8
detail
 62
    16
  6
CONTINUOUS
370
     5
100
AcDbCircle
 10
1.83153651
 20
-5.58137317
 30
0.0
 40
6.0662799949673E-05
100
AcDbArc
 50
121.66864699
 51
166.63290203
  0
ARC
  5
337
100
AcDbEntity
  8
detail
 62
    16
  6
CONTINUOUS
370
     5
100
AcDbCircle
 10
1.83175497
 20
-5.58491105
 30
0.0
 40
4.0441800000111E-05
100
AcDbArc
 50
56.51308499
 51
252.52613503
  0
ARC
  5
338
100
AcDbEntity
  8
detail
 62
    16
  6
CONTINUOUS
370
     5
100
AcDbCircle
 10
1.83175744
 20
-5.5849102
 30
0.0
 40
1.3480599997169E-05
100
AcDbArc
 50
72.52611995
 51
252.52613507
  0
ARC
  5
339
100
AcDbEntity
  8
detail
 62
    16
  6
CONTINUOUS
370
     5
100
AcDbCircle
 10
1.83187694
 20
-5.58479373
 30
0.0
 40
0.00014523
100
AcDbArc
 50
250.15309602
 51
4.535121
  0
ARC
  5
33A
100
AcDbEntity
  8
detail
 62
    16
  6
CONTINUOUS
370
     5
100
AcDbCircle
 10
1.83187694
 20
-5.58479373
 30
0.0
 40
0.0001738
100
AcDbArc
 50
247.88434501
 51
4.535121
  0
ARC
  5
33B
100
AcDbEntity
  8
detail
 62
    16
  6
CONTINUOUS
370
     5
100
AcDbCircle
 10
1.83187694
 20
-5.58479373
 30
0.0
 40
0.00020236
100
AcDbArc
 50
246.24700102
 51
4.535121
  0
ARC
  5
33C
100
AcDbEntity
  8
detail
 62
    16
  6
CONTINUOUS
370
     5
100
AcDbCircle
 10
1.83277833
 20
-5.56834845
 30
0.0
 40
0.00022806
100
AcDbArc
 50
214.34961002
 51
49.645282
  0
ARC
  5
33D
100
AcDbEntity
  8
detail
 62
    16
  6
CONTINUOUS
370
     5
100
AcDbCircle
 10
1.83277833
 20
-5.56834845
 30
0.0
 40
0.00031804
100
AcDbArc
 50
217.29213002
 51
27.829797
  0
ARC
  5
33E
100
AcDbEntity
  8
detail
 62
    16
  6
CONTINUOUS
370
     5
100
AcDbCircle
 10
1.83432264
 20
-5.58156611
 30
0.0
 40
0.00189746
100
AcDbArc
 50
164.226014
 51
180.0
  0
ARC
  5
33F
100
AcDbEntity
  8
detail
 62
    16
  6
CONTINUOUS
370
     5
100
AcDbCircle
 10
1.8383145
 20
-5.57191529
 30
0.0
 40
0.00711054
100
AcDbArc
 50
178.51218
 51
188.35908802
  0
ARC
  5
340
100
AcDbEntity
  8
detail
 62
    16
  6
CONTINUOUS
370
     5
100
AcDbCircle
 10
1.8383145
 20
-5.57191529
 30
0.0
 40
0.0071375
100
AcDbArc
 50
168.836587
 51
177.709685
  0
ARC
  5
341
100
AcDbEntity
  8
detail
 62
    16
  6
CONTINUOUS
370
     5
100
AcDbCircle
 10
1.8383145
 20
-5.57191529
 30
0.0
 40
0.0071375
100
AcDbArc
 50
178.467193
 51
188.35908802
  0
ARC
  5
342
100
AcDbEntity
  8
detail
 62
    16
  6
CONTINUOUS
370
     5
100
AcDbCircle
 10
1.83198436
 20
-5.56937682
 30
0.0
 40
6.0662800013021E-05
100
AcDbArc
 50
322.25974303
 51
58.93647598
  0
ARC
  5
343
100
AcDbEntity
  8
detail
 62
    16
  6
CONTINUOUS
370
     5
100
AcDbCircle
 10
1.83198705
 20
-5.5693785
 30
0.0
 40
3.3701499977326E-05
100
AcDbArc
 50
353.85249801
 51
59.43738302
  0
ARC
  5
344
100
AcDbEntity
  8
detail
 62
    16
  6
CONTINUOUS
370
     5
100
AcDbCircle
 10
1.8383145
 20
-5.57191529
 30
0.0
 40
0.0071375
100
AcDbArc
 50
159.282293
 51
168.079079
  0
ARC
  5
345
100
AcDbEntity
  8
detail
 62
    16
  6
CONTINUOUS
370
     5
100
AcDbCircle
 10
1.8383145
 20
-5.57191529
 30
0.0
 40
0.00711054
100
AcDbArc
 50
159.282293
 51
168.034105
  0
ARC
  5
346
100
AcDbEntity
  8
detail
 62
    16
  6
CONTINUOUS
370
     5
100
AcDbCircle
 10
1.8383145
 20
-5.57191529
 30
0.0
 40
0.00711054
100
AcDbArc
 50
168.881579
 51
177.664705
  0
ARC
  5
347
100
AcDbEntity
  8
detail
 62
    16
  6
CONTINUOUS
370
     5
100
AcDbCircle
 10
1.83472487
 20
-5.57109676
 30
0.0
 40
0.00320208
100
AcDbArc
 50
147.623577
 51
204.59994102
  0
ARC
  5
348
100
AcDbEntity
  8
detail
 62
    16
  6
CONTINUOUS
370
     5
100
AcDbCircle
 10
1.83472487
 20
-5.57109676
 30
0.0
 40
0.00317516
100
AcDbArc
 50
147.995003
 51
204.62558202
  0
ARC
  5
349
100
AcDbEntity
  8
detail
 62
    16
  6
CONTINUOUS
370
     5
100
AcDbCircle
 10
1.83128616
 20
-5.57294802
 30
0.0
 40
3.3701500001331E-05
100
AcDbArc
 50
188.35908803
 51
351.63697603
  0
ARC
  5
34A
100
AcDbEntity
  8
detail
 62
    16
  6
CONTINUOUS
370
     5
100
AcDbCircle
 10
1.83158875
 20
-5.57246538
 30
0.0
 40
0.00022243
100
AcDbArc
 50
350.10156402
 51
171.636971
  0
ARC
  5
34B
100
AcDbEntity
  8
detail
 62
    16
  6
CONTINUOUS
370
     5
100
AcDbCircle
 10
1.83128616
 20
-5.57294802
 30
0.0
 40
6.7403000013131E-06
100
AcDbArc
 50
188.35908796
 51
351.63697612
  0
ARC
  5
34C
100
AcDbEntity
  8
detail
 62
    16
  6
CONTINUOUS
370
     5
100
AcDbCircle
 10
1.83158875
 20
-5.57246538
 30
0.0
 40
0.00019547
100
AcDbArc
 50
350.10156402
 51
171.636971
  0
ARC
  5
34D
100
AcDbEntity
  8
detail
 62
    16
  6
CONTINUOUS
370
     5
100
AcDbCircle
 10
1.83168807
 20
-5.5724793
 30
0.0
 40
0.00013481
100
AcDbArc
 50
348.56850001
 51
21.578856
  0
ARC
  5
34E
100
AcDbEntity
  8
detail
 62
    16
  6
CONTINUOUS
370
     5
100
AcDbCircle
 10
1.83168807
 20
-5.5724793
 30
0.0
 40
0.00016177
100
AcDbArc
 50
348.56850002
 51
21.578856
  0
ARC
  5
34F
100
AcDbEntity
  8
detail
 62
    16
  6
CONTINUOUS
370
     5
100
AcDbCircle
 10
1.83201948
 20
-5.5688713
 30
0.0
 40
0.00017525
100
AcDbArc
 50
359.56563102
 51
170.570069
  0
ARC
  5
350
100
AcDbEntity
  8
detail
 62
    16
  6
CONTINUOUS
370
     5
100
AcDbCircle
 10
1.83201948
 20
-5.5688713
 30
0.0
 40
0.00014829
100
AcDbArc
 50
0.947218
 51
170.570069
  0
ARC
  5
351
100
AcDbEntity
  8
detail
 62
    16
  6
CONTINUOUS
370
     5
100
AcDbCircle
 10
1.83201948
 20
-5.5688713
 30
0.0
 40
0.00012133
100
AcDbArc
 50
350.47046202
 51
174.826035
  0
ARC
  5
352
100
AcDbEntity
  8
detail
 62
    16
  6
CONTINUOUS
370
     5
100
AcDbCircle
 10
1.832163
 20
-5.56894869
 30
0.0
 40
3.3027500002579E-05
100
AcDbArc
 50
170.47045
 51
0.77360799
  0
ARC
  5
353
100
AcDbEntity
  8
detail
 62
    16
  6
CONTINUOUS
370
     5
100
AcDbCircle
 10
1.832163
 20
-5.56894869
 30
0.0
 40
6.0662999999336E-06
100
AcDbArc
 50
171.76089193
 51
0.94721802
  0
ARC
  5
354
100
AcDbEntity
  8
detail
 62
    16
  6
CONTINUOUS
370
     5
100
AcDbCircle
 10
1.83189867
 20
-5.56923384
 30
0.0
 40
6.0662800034742E-05
100
AcDbArc
 50
174.82603502
 51
245.07447199
  0
ARC
  5
355
100
AcDbEntity
  8
detail
 62
    16
  6
CONTINUOUS
370
     5
100
AcDbCircle
 10
1.83189867
 20
-5.56923384
 30
0.0
 40
3.3701499972588E-05
100
AcDbArc
 50
174.82603497
 51
245.07447204
  0
ARC
  5
356
100
AcDbEntity
  8
detail
 62
    16
  6
CONTINUOUS
370
     5
100
AcDbCircle
 10
1.83173833
 20
-5.56928875
 30
0.0
 40
3.3701500053756E-05
100
AcDbArc
 50
294.31804906
 51
350.57007998
  0
ARC
  5
357
100
AcDbEntity
  8
detail
 62
    16
  6
CONTINUOUS
370
     5
100
AcDbCircle
 10
1.83169528
 20
-5.56941176
 30
0.0
 40
3.3701499949648E-05
100
AcDbArc
 50
114.31803797
 51
159.28229306
  0
ARC
  5
358
100
AcDbEntity
  8
detail
 62
    16
  6
CONTINUOUS
370
     5
100
AcDbCircle
 10
1.83173833
 20
-5.56928875
 30
0.0
 40
6.0662799945097E-05
100
AcDbArc
 50
294.31804898
 51
350.57008003
  0
ARC
  5
359
100
AcDbEntity
  8
detail
 62
    16
  6
CONTINUOUS
370
     5
100
AcDbCircle
 10
1.83169528
 20
-5.56941176
 30
0.0
 40
6.0662799982995E-05
100
AcDbArc
 50
114.31803799
 51
159.28229299
  0
ARC
  5
35A
100
AcDbEntity
  8
detail
 62
    16
  6
CONTINUOUS
370
     5
100
AcDbCircle
 10
1.83145931
 20
-5.57294851
 30
0.0
 40
4.0441800003752E-05
100
AcDbArc
 50
49.162476
 51
245.17552501
  0
ARC
  5
35B
100
AcDbEntity
  8
detail
 62
    16
  6
CONTINUOUS
370
     5
100
AcDbCircle
 10
1.83146187
 20
-5.57294798
 30
0.0
 40
1.3480600004455E-05
100
AcDbArc
 50
65.17551005
 51
245.17552499
  0
ARC
  5
35C
100
AcDbEntity
  8
detail
 62
    16
  6
CONTINUOUS
370
     5
100
AcDbCircle
 10
1.83159529
 20
-5.57284776
 30
0.0
 40
0.00014523
100
AcDbArc
 50
242.80248702
 51
357.18452102
  0
ARC
  5
35D
100
AcDbEntity
  8
detail
 62
    16
  6
CONTINUOUS
370
     5
100
AcDbCircle
 10
1.83159529
 20
-5.57284776
 30
0.0
 40
0.0001738
100
AcDbArc
 50
240.53373602
 51
357.18452102
  0
ARC
  5
35E
100
AcDbEntity
  8
detail
 62
    16
  6
CONTINUOUS
370
     5
100
AcDbCircle
 10
1.83159529
 20
-5.57284776
 30
0.0
 40
0.00020236
100
AcDbArc
 50
238.89639102
 51
357.18452102
  0
ARC
  5
35F
100
AcDbEntity
  8
detail
 62
    16
  6
CONTINUOUS
370
     5
100
AcDbCircle
 10
1.83815925
 20
-5.57503999
 30
0.0
 40
0.00711054
100
AcDbArc
 50
185.86280002
 51
195.70969702
  0
ARC
  5
360
100
AcDbEntity
  8
detail
 62
    16
  6
CONTINUOUS
370
     5
100
AcDbCircle
 10
1.83815925
 20
-5.57503999
 30
0.0
 40
0.0071375
100
AcDbArc
 50
176.187196
 51
185.06030502
  0
ARC
  5
361
100
AcDbEntity
  8
detail
 62
    16
  6
CONTINUOUS
370
     5
100
AcDbCircle
 10
1.83815925
 20
-5.57503999
 30
0.0
 40
0.0071375
100
AcDbArc
 50
185.81781302
 51
195.70969702
  0
ARC
  5
362
100
AcDbEntity
  8
detail
 62
    16
  6
CONTINUOUS
370
     5
100
AcDbCircle
 10
1.83155636
 20
-5.57333226
 30
0.0
 40
6.0662799991583E-05
100
AcDbArc
 50
329.61035302
 51
66.28708501
  0
ARC
  5
363
100
AcDbEntity
  8
detail
 62
    16
  6
CONTINUOUS
370
     5
100
AcDbCircle
 10
1.83155925
 20
-5.57333359
 30
0.0
 40
3.3701500013958E-05
100
AcDbArc
 50
1.20309701
 51
66.78799298
  0
ARC
  5
364
100
AcDbEntity
  8
detail
 62
    16
  6
CONTINUOUS
370
     5
100
AcDbCircle
 10
1.83815925
 20
-5.57503999
 30
0.0
 40
0.0071375
100
AcDbArc
 50
166.632902
 51
175.429689
  0
ARC
  5
365
100
AcDbEntity
  8
detail
 62
    16
  6
CONTINUOUS
370
     5
100
AcDbCircle
 10
1.83815925
 20
-5.57503999
 30
0.0
 40
0.00711054
100
AcDbArc
 50
166.632902
 51
175.384715
  0
ARC
  5
366
100
AcDbEntity
  8
detail
 62
    16
  6
CONTINUOUS
370
     5
100
AcDbCircle
 10
1.83815925
 20
-5.57503999
 30
0.0
 40
0.00711054
100
AcDbArc
 50
176.232189
 51
185.01532502
  0
ARC
  5
367
100
AcDbEntity
  8
detail
 62
    16
  6
CONTINUOUS
370
     5
100
AcDbCircle
 10
1.8344944
 20
-5.57468745
 30
0.0
 40
0.00320208
100
AcDbArc
 50
154.974186
 51
211.95055102
  0
ARC
  5
368
100
AcDbEntity
  8
detail
 62
    16
  6
CONTINUOUS
370
     5
100
AcDbCircle
 10
1.8344944
 20
-5.57468745
 30
0.0
 40
0.00317516
100
AcDbArc
 50
155.345613
 51
211.97619202
  0
ARC
  5
369
100
AcDbEntity
  8
detail
 62
    16
  6
CONTINUOUS
370
     5
100
AcDbCircle
 10
1.8313208
 20
-5.57696344
 30
0.0
 40
3.3701500001006E-05
100
AcDbArc
 50
195.70969701
 51
358.98758501
  0
ARC
  5
36A
100
AcDbEntity
  8
detail
 62
    16
  6
CONTINUOUS
370
     5
100
AcDbCircle
 10
1.83155915
 20
-5.57644606
 30
0.0
 40
0.00022243
100
AcDbArc
 50
357.45217302
 51
178.98758
  0
ARC
  5
36B
100
AcDbEntity
  8
detail
 62
    16
  6
CONTINUOUS
370
     5
100
AcDbCircle
 10
1.8313208
 20
-5.57696344
 30
0.0
 40
6.7403000015541E-06
100
AcDbArc
 50
195.70969709
 51
358.98758489
  0
ARC
  5
36C
100
AcDbEntity
  8
detail
 62
    16
  6
CONTINUOUS
370
     5
100
AcDbCircle
 10
1.83155915
 20
-5.57644606
 30
0.0
 40
0.00019547
100
AcDbArc
 50
357.45217302
 51
178.98758
  0
ARC
  5
36D
100
AcDbEntity
  8
detail
 62
    16
  6
CONTINUOUS
370
     5
100
AcDbCircle
 10
1.83165943
 20
-5.57644716
 30
0.0
 40
0.00013481
100
AcDbArc
 50
355.91910903
 51
28.92946499
  0
ARC
  5
36E
100
AcDbEntity
  8
detail
 62
    16
  6
CONTINUOUS
370
     5
100
AcDbCircle
 10
1.83165943
 20
-5.57644716
 30
0.0
 40
0.00016177
100
AcDbArc
 50
355.91910901
 51
28.929465
  0
ARC
  5
36F
100
AcDbEntity
  8
detail
 62
    16
  6
CONTINUOUS
370
     5
100
AcDbCircle
 10
1.83152651
 20
-5.5728264
 30
0.0
 40
0.00017525
100
AcDbArc
 50
6.91623
 51
177.920678
  0
ARC
  5
370
100
AcDbEntity
  8
detail
 62
    16
  6
CONTINUOUS
370
     5
100
AcDbCircle
 10
1.83152651
 20
-5.5728264
 30
0.0
 40
0.00014829
100
AcDbArc
 50
8.297827
 51
177.92067799
  0
ARC
  5
371
100
AcDbEntity
  8
detail
 62
    16
  6
CONTINUOUS
370
     5
100
AcDbCircle
 10
1.83152651
 20
-5.5728264
 30
0.0
 40
0.00012133
100
AcDbArc
 50
357.82107102
 51
182.17665401
  0
ARC
  5
372
100
AcDbEntity
  8
detail
 62
    16
  6
CONTINUOUS
370
     5
100
AcDbCircle
 10
1.83167875
 20
-5.5728848
 30
0.0
 40
3.3027500001221E-05
100
AcDbArc
 50
177.821059
 51
8.12421701
  0
ARC
  5
373
100
AcDbEntity
  8
detail
 62
    16
  6
CONTINUOUS
370
     5
100
AcDbCircle
 10
1.83167875
 20
-5.5728848
 30
0.0
 40
6.0663000026136E-06
100
AcDbArc
 50
179.11150103
 51
8.2978269
  0
ARC
  5
374
100
AcDbEntity
  8
detail
 62
    16
  6
CONTINUOUS
370
     5
100
AcDbCircle
 10
1.83145308
 20
-5.57320143
 30
0.0
 40
6.0662800033855E-05
100
AcDbArc
 50
182.17665402
 51
252.42508099
  0
ARC
  5
375
100
AcDbEntity
  8
detail
 62
    16
  6
CONTINUOUS
370
     5
100
AcDbCircle
 10
1.83145308
 20
-5.57320143
 30
0.0
 40
3.3701500024468E-05
100
AcDbArc
 50
182.17665404
 51
252.42508099
  0
ARC
  5
376
100
AcDbEntity
  8
detail
 62
    16
  6
CONTINUOUS
370
     5
100
AcDbCircle
 10
1.83130108
 20
-5.5732764
 30
0.0
 40
3.3701499944494E-05
100
AcDbArc
 50
301.66865797
 51
357.92068906
  0
ARC
  5
377
100
AcDbEntity
  8
detail
 62
    16
  6
CONTINUOUS
370
     5
100
AcDbCircle
 10
1.83127413
 20
-5.5734039
 30
0.0
 40
3.3701500048731E-05
100
AcDbArc
 50
121.66864703
 51
166.63290196
  0
ARC
  5
378
100
AcDbEntity
  8
detail
 62
    16
  6
CONTINUOUS
370
     5
100
AcDbCircle
 10
1.83130108
 20
-5.5732764
 30
0.0
 40
6.0662800023375E-05
100
AcDbArc
 50
301.66865803
 51
357.92068901
  0
ARC
  5
379
100
AcDbEntity
  8
detail
 62
    16
  6
CONTINUOUS
370
     5
100
AcDbCircle
 10
1.83127413
 20
-5.5734039
 30
0.0
 40
6.0662799967695E-05
100
AcDbArc
 50
121.66864699
 51
166.63290201
  0
ARC
  5
37A
100
AcDbEntity
  8
detail
 62
    16
  6
CONTINUOUS
370
     5
100
AcDbCircle
 10
1.83149259
 20
-5.57694178
 30
0.0
 40
4.0441800004980E-05
100
AcDbArc
 50
56.513085
 51
252.52613503
  0
ARC
  5
37B
100
AcDbEntity
  8
detail
 62
    16
  6
CONTINUOUS
370
     5
100
AcDbCircle
 10
1.83149506
 20
-5.57694093
 30
0.0
 40
1.3480600001083E-05
100
AcDbArc
 50
72.52611998
 51
252.52613505
  0
ARC
  5
37C
100
AcDbEntity
  8
detail
 62
    16
  6
CONTINUOUS
370
     5
100
AcDbCircle
 10
1.83161456
 20
-5.57682446
 30
0.0
 40
0.00014523
100
AcDbArc
 50
250.15309602
 51
4.535121
  0
ARC
  5
37D
100
AcDbEntity
  8
detail
 62
    16
  6
CONTINUOUS
370
     5
100
AcDbCircle
 10
1.83161456
 20
-5.57682446
 30
0.0
 40
0.0001738
100
AcDbArc
 50
247.88434502
 51
4.535121
  0
ARC
  5
37E
100
AcDbEntity
  8
detail
 62
    16
  6
CONTINUOUS
370
     5
100
AcDbCircle
 10
1.83161456
 20
-5.57682446
 30
0.0
 40
0.00020236
100
AcDbArc
 50
246.24700102
 51
4.535121
  0
ARC
  5
37F
100
AcDbEntity
  8
detail
 62
    16
  6
CONTINUOUS
370
     5
100
AcDbCircle
 10
1.84410594
 20
-5.56947134
 30
0.0
 40
0.00026944
100
AcDbArc
 50
270.00001002
 51
90.0
  0
ARC
  5
380
100
AcDbEntity
  8
detail
 62
    16
  6
CONTINUOUS
370
     5
100
AcDbCircle
 10
1.83445496
 20
-5.56947134
 30
0.0
 40
0.00026944
100
AcDbArc
 50
90.0
 51
270.00001002
  0
ARC
  5
381
100
AcDbEntity
  8
detail
 62
    16
  6
CONTINUOUS
370
     5
100
AcDbCircle
 10
1.84410594
 20
-5.5760104
 30
0.0
 40
0.00026944
100
AcDbArc
 50
270.00001002
 51
90.0
  0
ARC
  5
382
100
AcDbEntity
  8
detail
 62
    16
  6
CONTINUOUS
370
     5
100
AcDbCircle
 10
1.83445496
 20
-5.5760104
 30
0.0
 40
0.00026944
100
AcDbArc
 50
90.0
 51
270.00001002
  0
ARC
  5
383
100
AcDbEntity
  8
detail
 62
    16
  6
CONTINUOUS
370
     5
100
AcDbCircle
 10
1.83105199
 20
-5.56506905
 30
0.0
 40
0.0003453
100
AcDbArc
 50
52.122858
 51
167.184791
  0
ARC
  5
384
100
AcDbEntity
  8
detail
 62
    16
  6
CONTINUOUS
370
     5
100
AcDbCircle
 10
1.83115951
 20
-5.56532158
 30
0.0
 40
0.00016417
100
AcDbArc
 50
47.899533
 51
174.105762
  0
ARC
  5
385
100
AcDbEntity
  8
detail
 62
    16
  6
CONTINUOUS
370
     5
100
AcDbCircle
 10
1.84410594
 20
-5.57779105
 30
0.0
 40
0.00026944
100
AcDbArc
 50
270.00001002
 51
90.0
  0
ARC
  5
386
100
AcDbEntity
  8
detail
 62
    16
  6
CONTINUOUS
370
     5
100
AcDbCircle
 10
1.83445496
 20
-5.57779105
 30
0.0
 40
0.00026944
100
AcDbArc
 50
90.0
 51
270.00001002
  0
ARC
  5
387
100
AcDbEntity
  8
detail
 62
    16
  6
CONTINUOUS
370
     5
100
AcDbCircle
 10
1.83099621
 20
-5.5684606
 30
0.0
 40
0.00031277
100
AcDbArc
 50
270.00001002
 51
1.1995808328546E-09
  0
ARC
  5
388
100
AcDbEntity
  8
detail
 62
    16
  6
CONTINUOUS
370
     5
100
AcDbCircle
 10
1.84482104
 20
-5.57135983
 30
0.0
 40
0.00051201
100
AcDbArc
 50
270.00001002
 51
360.00001002
  0
ARC
  5
389
100
AcDbEntity
  8
detail
 62
    16
  6
CONTINUOUS
370
     5
100
AcDbCircle
 10
1.84482104
 20
-5.56725587
 30
0.0
 40
0.00051201
100
AcDbArc
 50
360.00001002
 51
90.0
  0
ARC
  5
38A
100
AcDbEntity
  8
detail
 62
    16
  6
CONTINUOUS
370
     5
100
AcDbCircle
 10
1.84482104
 20
-5.57838132
 30
0.0
 40
0.00051201
100
AcDbArc
 50
270.00001002
 51
1.0584739199413E-09
  0
ARC
  5
38B
100
AcDbEntity
  8
detail
 62
    16
  6
CONTINUOUS
370
     5
100
AcDbCircle
 10
1.83445496
 20
-5.57327602
 30
0.0
 40
0.00140418
100
AcDbArc
 50
90.0
 51
270.00001002
  0
ARC
  5
38C
100
AcDbEntity
  8
detail
 62
    16
  6
CONTINUOUS
370
     5
100
AcDbCircle
 10
1.84482104
 20
-5.57519221
 30
0.0
 40
0.00051201
100
AcDbArc
 50
360.00001002
 51
90.0
  0
ARC
  5
38D
100
AcDbEntity
  8
detail
 62
    16
  6
CONTINUOUS
370
     5
100
AcDbCircle
 10
1.8382943
 20
-5.57870168
 30
0.0
 40
0.00711054
100
AcDbArc
 50
188.77363702
 51
198.62053502
  0
ARC
  5
38E
100
AcDbEntity
  8
detail
 62
    16
  6
CONTINUOUS
370
     5
100
AcDbCircle
 10
1.8382943
 20
-5.57870168
 30
0.0
 40
0.0071375
100
AcDbArc
 50
179.098034
 51
187.97114302
  0
ARC
  5
38F
100
AcDbEntity
  8
detail
 62
    16
  6
CONTINUOUS
370
     5
100
AcDbCircle
 10
1.8382943
 20
-5.57870168
 30
0.0
 40
0.0071375
100
AcDbArc
 50
188.72865102
 51
198.62053502
  0
ARC
  5
390
100
AcDbEntity
  8
detail
 62
    16
  6
CONTINUOUS
370
     5
100
AcDbCircle
 10
1.83161321
 20
-5.57733147
 30
0.0
 40
6.0662800014576E-05
100
AcDbArc
 50
332.52119103
 51
69.19792299
  0
ARC
  5
391
100
AcDbEntity
  8
detail
 62
    16
  6
CONTINUOUS
370
     5
100
AcDbCircle
 10
1.83161616
 20
-5.57733264
 30
0.0
 40
3.3701500030172E-05
100
AcDbArc
 50
4.11393501
 51
69.69883095
  0
ARC
  5
392
100
AcDbEntity
  8
detail
 62
    16
  6
CONTINUOUS
370
     5
100
AcDbCircle
 10
1.8382943
 20
-5.57870168
 30
0.0
 40
0.0071375
100
AcDbArc
 50
169.54374
 51
178.340526
  0
ARC
  5
393
100
AcDbEntity
  8
detail
 62
    16
  6
CONTINUOUS
370
     5
100
AcDbCircle
 10
1.8382943
 20
-5.57870168
 30
0.0
 40
0.00711054
100
AcDbArc
 50
169.54374
 51
178.295553
  0
ARC
  5
394
100
AcDbEntity
  8
detail
 62
    16
  6
CONTINUOUS
370
     5
100
AcDbCircle
 10
1.8382943
 20
-5.57870168
 30
0.0
 40
0.00711054
100
AcDbArc
 50
179.143027
 51
187.92616302
  0
ARC
  5
395
100
AcDbEntity
  8
detail
 62
    16
  6
CONTINUOUS
370
     5
100
AcDbCircle
 10
1.83461628
 20
-5.5785357
 30
0.0
 40
0.00320208
100
AcDbArc
 50
157.885024
 51
214.86138902
  0
ARC
  5
396
100
AcDbEntity
  8
detail
 62
    16
  6
CONTINUOUS
370
     5
100
AcDbCircle
 10
1.83461628
 20
-5.5785357
 30
0.0
 40
0.00317516
100
AcDbArc
 50
158.25645
 51
214.88703002
  0
ARC
  5
397
100
AcDbEntity
  8
detail
 62
    16
  6
CONTINUOUS
370
     5
100
AcDbCircle
 10
1.83156235
 20
-5.58096992
 30
0.0
 40
3.3701499998850E-05
100
AcDbArc
 50
198.62053503
 51
1.898413
  0
ARC
  5
398
100
AcDbEntity
  8
detail
 62
    16
  6
CONTINUOUS
370
     5
100
AcDbCircle
 10
1.83177412
 20
-5.5804411
 30
0.0
 40
0.00022243
100
AcDbArc
 50
0.363001
 51
181.89842802
  0
ARC
  5
399
100
AcDbEntity
  8
detail
 62
    16
  6
CONTINUOUS
370
     5
100
AcDbCircle
 10
1.83156235
 20
-5.58096992
 30
0.0
 40
6.7402999984061E-06
100
AcDbArc
 50
198.62053495
 51
1.8984131
  0
ARC
  5
39A
100
AcDbEntity
  8
detail
 62
    16
  6
CONTINUOUS
370
     5
100
AcDbCircle
 10
1.83177412
 20
-5.5804411
 30
0.0
 40
0.00019547
100
AcDbArc
 50
0.363001
 51
181.89842802
  0
ARC
  5
39B
100
AcDbEntity
  8
detail
 62
    16
  6
CONTINUOUS
370
     5
100
AcDbCircle
 10
1.83187433
 20
-5.58043711
 30
0.0
 40
0.00013481
100
AcDbArc
 50
358.829947
 51
31.84030302
  0
ARC
  5
39C
100
AcDbEntity
  8
detail
 62
    16
  6
CONTINUOUS
370
     5
100
AcDbCircle
 10
1.83187433
 20
-5.58043711
 30
0.0
 40
0.00016177
100
AcDbArc
 50
358.82994702
 51
31.840303
  0
ARC
  5
39D
100
AcDbEntity
  8
detail
 62
    16
  6
CONTINUOUS
370
     5
100
AcDbCircle
 10
1.83155771
 20
-5.57682777
 30
0.0
 40
0.00017525
100
AcDbArc
 50
9.827068
 51
180.83152602
  0
ARC
  5
39E
100
AcDbEntity
  8
detail
 62
    16
  6
CONTINUOUS
370
     5
100
AcDbCircle
 10
1.83155771
 20
-5.57682777
 30
0.0
 40
0.00014829
100
AcDbArc
 50
11.208665
 51
180.83152602
  0
ARC
  5
39F
100
AcDbEntity
  8
detail
 62
    16
  6
CONTINUOUS
370
     5
100
AcDbCircle
 10
1.83155771
 20
-5.57682777
 30
0.0
 40
0.00012133
100
AcDbArc
 50
0.731899
 51
185.08749202
  0
ARC
  5
3A0
100
AcDbEntity
  8
detail
 62
    16
  6
CONTINUOUS
370
     5
100
AcDbCircle
 10
1.83171272
 20
-5.57687837
 30
0.0
 40
3.3027500002155E-05
100
AcDbArc
 50
180.73190702
 51
11.035055
  0
ARC
  5
3A1
100
AcDbEntity
  8
detail
 62
    16
  6
CONTINUOUS
370
     5
100
AcDbCircle
 10
1.83171272
 20
-5.57687837
 30
0.0
 40
6.0662999956781E-06
100
AcDbArc
 50
182.02234903
 51
11.20866511
  0
ARC
  5
3A2
100
AcDbEntity
  8
detail
 62
    16
  6
CONTINUOUS
370
     5
100
AcDbCircle
 10
1.83150341
 20
-5.57720604
 30
0.0
 40
6.0662800007240E-05
100
AcDbArc
 50
185.08749202
 51
255.33591901
  0
ARC
  5
3A3
100
AcDbEntity
  8
detail
 62
    16
  6
CONTINUOUS
370
     5
100
AcDbCircle
 10
1.83150341
 20
-5.57720604
 30
0.0
 40
3.3701500057101E-05
100
AcDbArc
 50
185.08749207
 51
255.33591895
  0
ARC
  5
3A4
100
AcDbEntity
  8
detail
 62
    16
  6
CONTINUOUS
370
     5
100
AcDbCircle
 10
1.83135543
 20
-5.57728864
 30
0.0
 40
3.3701499983903E-05
100
AcDbArc
 50
304.57949601
 51
0.83151703
  0
ARC
  5
3A5
100
AcDbEntity
  8
detail
 62
    16
  6
CONTINUOUS
370
     5
100
AcDbCircle
 10
1.83133498
 20
-5.57741735
 30
0.0
 40
3.3701499968753E-05
100
AcDbArc
 50
124.57948497
 51
169.54374001
  0
ARC
  5
3A6
100
AcDbEntity
  8
detail
 62
    16
  6
CONTINUOUS
370
     5
100
AcDbCircle
 10
1.83135543
 20
-5.57728864
 30
0.0
 40
6.0662800039141E-05
100
AcDbArc
 50
304.57949604
 51
0.83151699
  0
ARC
  5
3A7
100
AcDbEntity
  8
detail
 62
    16
  6
CONTINUOUS
370
     5
100
AcDbCircle
 10
1.83133498
 20
-5.57741735
 30
0.0
 40
6.0662799953218E-05
100
AcDbArc
 50
124.57948498
 51
169.54374003
  0
ARC
  5
3A8
100
AcDbEntity
  8
detail
 62
    16
  6
CONTINUOUS
370
     5
100
AcDbCircle
 10
1.83173281
 20
-5.58093956
 30
0.0
 40
4.0441800000215E-05
100
AcDbArc
 50
59.42392299
 51
255.43697303
  0
ARC
  5
3A9
100
AcDbEntity
  8
detail
 62
    16
  6
CONTINUOUS
370
     5
100
AcDbCircle
 10
1.83173524
 20
-5.58093859
 30
0.0
 40
1.3480600004628E-05
100
AcDbArc
 50
75.43695803
 51
255.43697302
  0
ARC
  5
3AA
100
AcDbEntity
  8
detail
 62
    16
  6
CONTINUOUS
370
     5
100
AcDbCircle
 10
1.83184867
 20
-5.5808162
 30
0.0
 40
0.00014523
100
AcDbArc
 50
253.06393401
 51
7.44595901
  0
ARC
  5
3AB
100
AcDbEntity
  8
detail
 62
    16
  6
CONTINUOUS
370
     5
100
AcDbCircle
 10
1.83184867
 20
-5.5808162
 30
0.0
 40
0.0001738
100
AcDbArc
 50
250.79518301
 51
7.445959
  0
ARC
  5
3AC
100
AcDbEntity
  8
detail
 62
    16
  6
CONTINUOUS
370
     5
100
AcDbCircle
 10
1.83184867
 20
-5.5808162
 30
0.0
 40
0.00020236
100
AcDbArc
 50
249.15783902
 51
7.445959
  0
ARC
  5
3AD
100
AcDbEntity
  8
detail
 62
    16
  6
CONTINUOUS
370
     5
100
AcDbCircle
 10
1.83206292
 20
-5.56905067
 30
0.0
 40
8.3938999992597E-05
100
AcDbArc
 50
208.96883701
 51
313.96883703
  0
ARC
  5
3AE
100
AcDbEntity
  8
detail
 62
    16
  6
CONTINUOUS
370
     5
100
AcDbCircle
 10
1.83202514
 20
-5.56898242
 30
0.0
 40
8.3938999998896E-05
100
AcDbArc
 50
133.968829
 51
208.96885202
  0
ARC
  5
3AF
100
AcDbEntity
  8
detail
 62
    16
  6
CONTINUOUS
370
     5
100
AcDbCircle
 10
1.83201231
 20
-5.56890149
 30
0.0
 40
1.6787800007801E-05
100
AcDbArc
 50
333.96879802
 51
133.96885097
  0
ARC
  5
3B0
100
AcDbEntity
  8
detail
 62
    16
  6
CONTINUOUS
370
     5
100
AcDbCircle
 10
1.83202379
 20
-5.56898
 30
0.0
 40
2.7979699987782E-05
100
AcDbArc
 50
153.96882898
 51
208.96883104
  0
ARC
  5
3B1
100
AcDbEntity
  8
detail
 62
    16
  6
CONTINUOUS
370
     5
100
AcDbCircle
 10
1.83206412
 20
-5.56899508
 30
0.0
 40
5.5959299996781E-05
100
AcDbArc
 50
208.96884602
 51
313.96884102
  0
ARC
  5
3B2
100
AcDbEntity
  8
detail
 62
    16
  6
CONTINUOUS
370
     5
100
AcDbCircle
 10
1.83206292
 20
-5.56905067
 30
0.0
 40
8.3938999992597E-05
100
AcDbArc
 50
208.96883701
 51
313.96883703
  0
ARC
  5
3B3
100
AcDbEntity
  8
detail
 62
    16
  6
CONTINUOUS
370
     5
100
AcDbCircle
 10
1.83202514
 20
-5.56898242
 30
0.0
 40
8.3938999998896E-05
100
AcDbArc
 50
133.968829
 51
208.96885202
  0
ARC
  5
3B4
100
AcDbEntity
  8
detail
 62
    16
  6
CONTINUOUS
370
     5
100
AcDbCircle
 10
1.83201231
 20
-5.56890149
 30
0.0
 40
1.6787800007801E-05
100
AcDbArc
 50
333.96879802
 51
133.96885097
  0
ARC
  5
3B5
100
AcDbEntity
  8
detail
 62
    16
  6
CONTINUOUS
370
     5
100
AcDbCircle
 10
1.83202379
 20
-5.56898
 30
0.0
 40
2.7979699987782E-05
100
AcDbArc
 50
153.96882898
 51
208.96883104
  0
ARC
  5
3B6
100
AcDbEntity
  8
detail
 62
    16
  6
CONTINUOUS
370
     5
100
AcDbCircle
 10
1.83206412
 20
-5.56899508
 30
0.0
 40
5.5959299996781E-05
100
AcDbArc
 50
208.96884602
 51
313.96884102
  0
ARC
  5
3B7
100
AcDbEntity
  8
detail
 62
    16
  6
CONTINUOUS
370
     5
100
AcDbCircle
 10
1.83206292
 20
-5.56905067
 30
0.0
 40
8.3938999992597E-05
100
AcDbArc
 50
208.96883701
 51
313.96883703
  0
ARC
  5
3B8
100
AcDbEntity
  8
detail
 62
    16
  6
CONTINUOUS
370
     5
100
AcDbCircle
 10
1.83202514
 20
-5.56898242
 30
0.0
 40
8.3938999998896E-05
100
AcDbArc
 50
133.968829
 51
208.96885202
  0
ARC
  5
3B9
100
AcDbEntity
  8
detail
 62
    16
  6
CONTINUOUS
370
     5
100
AcDbCircle
 10
1.83201231
 20
-5.56890149
 30
0.0
 40
1.6787800007801E-05
100
AcDbArc
 50
333.96879802
 51
133.96885097
  0
ARC
  5
3BA
100
AcDbEntity
  8
detail
 62
    16
  6
CONTINUOUS
370
     5
100
AcDbCircle
 10
1.83202379
 20
-5.56898
 30
0.0
 40
2.7979699987782E-05
100
AcDbArc
 50
153.96882898
 51
208.96883104
  0
ARC
  5
3BB
100
AcDbEntity
  8
detail
 62
    16
  6
CONTINUOUS
370
     5
100
AcDbCircle
 10
1.83206412
 20
-5.56899508
 30
0.0
 40
5.5959299996781E-05
100
AcDbArc
 50
208.96884602
 51
313.96884102
  0
ARC
  5
3BC
100
AcDbEntity
  8
detail
 62
    16
  6
CONTINUOUS
370
     5
100
AcDbCircle
 10
1.83206292
 20
-5.56905067
 30
0.0
 40
8.3938999992597E-05
100
AcDbArc
 50
208.96883701
 51
313.96883703
  0
ARC
  5
3BD
100
AcDbEntity
  8
detail
 62
    16
  6
CONTINUOUS
370
     5
100
AcDbCircle
 10
1.83202514
 20
-5.56898242
 30
0.0
 40
8.3938999998896E-05
100
AcDbArc
 50
133.968829
 51
208.96885202
  0
ARC
  5
3BE
100
AcDbEntity
  8
detail
 62
    16
  6
CONTINUOUS
370
     5
100
AcDbCircle
 10
1.83201231
 20
-5.56890149
 30
0.0
 40
1.6787800007801E-05
100
AcDbArc
 50
333.96879802
 51
133.96885097
  0
ARC
  5
3BF
100
AcDbEntity
  8
detail
 62
    16
  6
CONTINUOUS
370
     5
100
AcDbCircle
 10
1.83202379
 20
-5.56898
 30
0.0
 40
2.7979699987782E-05
100
AcDbArc
 50
153.96882898
 51
208.96883104
  0
ARC
  5
3C0
100
AcDbEntity
  8
detail
 62
    16
  6
CONTINUOUS
370
     5
100
AcDbCircle
 10
1.83206412
 20
-5.56899508
 30
0.0
 40
5.5959299996781E-05
100
AcDbArc
 50
208.96884602
 51
313.96884102
  0
ARC
  5
3C1
100
AcDbEntity
  8
detail
 62
    16
  6
CONTINUOUS
370
     5
100
AcDbCircle
 10
1.83206292
 20
-5.56905067
 30
0.0
 40
8.3938999992597E-05
100
AcDbArc
 50
208.96883701
 51
313.96883703
  0
ARC
  5
3C2
100
AcDbEntity
  8
detail
 62
    16
  6
CONTINUOUS
370
     5
100
AcDbCircle
 10
1.83202514
 20
-5.56898242
 30
0.0
 40
8.3938999998896E-05
100
AcDbArc
 50
133.968829
 51
208.96885202
  0
ARC
  5
3C3
100
AcDbEntity
  8
detail
 62
    16
  6
CONTINUOUS
370
     5
100
AcDbCircle
 10
1.83201231
 20
-5.56890149
 30
0.0
 40
1.6787800007801E-05
100
AcDbArc
 50
333.96879802
 51
133.96885097
  0
ARC
  5
3C4
100
AcDbEntity
  8
detail
 62
    16
  6
CONTINUOUS
370
     5
100
AcDbCircle
 10
1.83202379
 20
-5.56898
 30
0.0
 40
2.7979699987782E-05
100
AcDbArc
 50
153.96882898
 51
208.96883104
  0
ARC
  5
3C5
100
AcDbEntity
  8
detail
 62
    16
  6
CONTINUOUS
370
     5
100
AcDbCircle
 10
1.83206412
 20
-5.56899508
 30
0.0
 40
5.5959299996781E-05
100
AcDbArc
 50
208.96884602
 51
313.96884102
  0
ARC
  5
3C6
100
AcDbEntity
  8
detail
 62
    16
  6
CONTINUOUS
370
     5
100
AcDbCircle
 10
1.83206292
 20
-5.56905067
 30
0.0
 40
8.3938999992597E-05
100
AcDbArc
 50
208.96883701
 51
313.96883703
  0
ARC
  5
3C7
100
AcDbEntity
  8
detail
 62
    16
  6
CONTINUOUS
370
     5
100
AcDbCircle
 10
1.83202514
 20
-5.56898242
 30
0.0
 40
8.3938999998896E-05
100
AcDbArc
 50
133.968829
 51
208.96885202
  0
ARC
  5
3C8
100
AcDbEntity
  8
detail
 62
    16
  6
CONTINUOUS
370
     5
100
AcDbCircle
 10
1.83201231
 20
-5.56890149
 30
0.0
 40
1.6787800007801E-05
100
AcDbArc
 50
333.96879802
 51
133.96885097
  0
ARC
  5
3C9
100
AcDbEntity
  8
detail
 62
    16
  6
CONTINUOUS
370
     5
100
AcDbCircle
 10
1.83202379
 20
-5.56898
 30
0.0
 40
2.7979699987782E-05
100
AcDbArc
 50
153.96882898
 51
208.96883104
  0
ARC
  5
3CA
100
AcDbEntity
  8
detail
 62
    16
  6
CONTINUOUS
370
     5
100
AcDbCircle
 10
1.83206412
 20
-5.56899508
 30
0.0
 40
5.5959299996781E-05
100
AcDbArc
 50
208.96884602
 51
313.96884102
  0
ARC
  5
3CB
100
AcDbEntity
  8
detail
 62
    16
  6
CONTINUOUS
370
     5
100
AcDbCircle
 10
1.83206292
 20
-5.56905067
 30
0.0
 40
8.3938999992597E-05
100
AcDbArc
 50
208.96883701
 51
313.96883703
  0
ARC
  5
3CC
100
AcDbEntity
  8
detail
 62
    16
  6
CONTINUOUS
370
     5
100
AcDbCircle
 10
1.83202514
 20
-5.56898242
 30
0.0
 40
8.3938999998896E-05
100
AcDbArc
 50
133.968829
 51
208.96885202
  0
ARC
  5
3CD
100
AcDbEntity
  8
detail
 62
    16
  6
CONTINUOUS
370
     5
100
AcDbCircle
 10
1.83201231
 20
-5.56890149
 30
0.0
 40
1.6787800007801E-05
100
AcDbArc
 50
333.96879802
 51
133.96885097
  0
ARC
  5
3CE
100
AcDbEntity
  8
detail
 62
    16
  6
CONTINUOUS
370
     5
100
AcDbCircle
 10
1.83202379
 20
-5.56898
 30
0.0
 40
2.7979699987782E-05
100
AcDbArc
 50
153.96882898
 51
208.96883104
  0
ARC
  5
3CF
100
AcDbEntity
  8
detail
 62
    16
  6
CONTINUOUS
370
     5
100
AcDbCircle
 10
1.83206412
 20
-5.56899508
 30
0.0
 40
5.5959299996781E-05
100
AcDbArc
 50
208.96884602
 51
313.96884102
  0
ARC
  5
3D0
100
AcDbEntity
  8
detail
 62
    16
  6
CONTINUOUS
370
     5
100
AcDbCircle
 10
1.83206292
 20
-5.56905067
 30
0.0
 40
8.3938999992597E-05
100
AcDbArc
 50
208.96883701
 51
313.96883703
  0
ARC
  5
3D1
100
AcDbEntity
  8
detail
 62
    16
  6
CONTINUOUS
370
     5
100
AcDbCircle
 10
1.83202514
 20
-5.56898242
 30
0.0
 40
8.3938999998896E-05
100
AcDbArc
 50
133.968829
 51
208.96885202
  0
ARC
  5
3D2
100
AcDbEntity
  8
detail
 62
    16
  6
CONTINUOUS
370
     5
100
AcDbCircle
 10
1.83201231
 20
-5.56890149
 30
0.0
 40
1.6787800007801E-05
100
AcDbArc
 50
333.96879802
 51
133.96885097
  0
ARC
  5
3D3
100
AcDbEntity
  8
detail
 62
    16
  6
CONTINUOUS
370
     5
100
AcDbCircle
 10
1.83202379
 20
-5.56898
 30
0.0
 40
2.7979699987782E-05
100
AcDbArc
 50
153.96882898
 51
208.96883104
  0
ARC
  5
3D4
100
AcDbEntity
  8
detail
 62
    16
  6
CONTINUOUS
370
     5
100
AcDbCircle
 10
1.83206412
 20
-5.56899508
 30
0.0
 40
5.5959299996781E-05
100
AcDbArc
 50
208.96884602
 51
313.96884102
  0
ARC
  5
3D5
100
AcDbEntity
  8
detail
 62
    16
  6
CONTINUOUS
370
     5
100
AcDbCircle
 10
1.83206292
 20
-5.56905067
 30
0.0
 40
8.3938999992597E-05
100
AcDbArc
 50
208.96883701
 51
313.96883703
  0
ARC
  5
3D6
100
AcDbEntity
  8
detail
 62
    16
  6
CONTINUOUS
370
     5
100
AcDbCircle
 10
1.83202514
 20
-5.56898242
 30
0.0
 40
8.3938999998896E-05
100
AcDbArc
 50
133.968829
 51
208.96885202
  0
ARC
  5
3D7
100
AcDbEntity
  8
detail
 62
    16
  6
CONTINUOUS
370
     5
100
AcDbCircle
 10
1.83201231
 20
-5.56890149
 30
0.0
 40
1.6787800007801E-05
100
AcDbArc
 50
333.96879802
 51
133.96885097
  0
ARC
  5
3D8
100
AcDbEntity
  8
detail
 62
    16
  6
CONTINUOUS
370
     5
100
AcDbCircle
 10
1.83202379
 20
-5.56898
 30
0.0
 40
2.7979699987782E-05
100
AcDbArc
 50
153.96882898
 51
208.96883104
  0
ARC
  5
3D9
100
AcDbEntity
  8
detail
 62
    16
  6
CONTINUOUS
370
     5
100
AcDbCircle
 10
1.83206412
 20
-5.56899508
 30
0.0
 40
5.5959299996781E-05
100
AcDbArc
 50
208.96884602
 51
313.96884102
  0
ARC
  5
3DA
100
AcDbEntity
  8
detail
 62
    16
  6
CONTINUOUS
370
     5
100
AcDbCircle
 10
1.83206292
 20
-5.56905067
 30
0.0
 40
8.3938999992597E-05
100
AcDbArc
 50
208.96883701
 51
313.96883703
  0
ARC
  5
3DB
100
AcDbEntity
  8
detail
 62
    16
  6
CONTINUOUS
370
     5
100
AcDbCircle
 10
1.83202514
 20
-5.56898242
 30
0.0
 40
8.3938999998896E-05
100
AcDbArc
 50
133.968829
 51
208.96885202
  0
ARC
  5
3DC
100
AcDbEntity
  8
detail
 62
    16
  6
CONTINUOUS
370
     5
100
AcDbCircle
 10
1.83201231
 20
-5.56890149
 30
0.0
 40
1.6787800007801E-05
100
AcDbArc
 50
333.96879802
 51
133.96885097
  0
ARC
  5
3DD
100
AcDbEntity
  8
detail
 62
    16
  6
CONTINUOUS
370
     5
100
AcDbCircle
 10
1.83202379
 20
-5.56898
 30
0.0
 40
2.7979699987782E-05
100
AcDbArc
 50
153.96882898
 51
208.96883104
  0
ARC
  5
3DE
100
AcDbEntity
  8
detail
 62
    16
  6
CONTINUOUS
370
     5
100
AcDbCircle
 10
1.83206412
 20
-5.56899508
 30
0.0
 40
5.5959299996781E-05
100
AcDbArc
 50
208.96884602
 51
313.96884102
  0
ARC
  5
3DF
100
AcDbEntity
  8
detail
 62
    16
  6
CONTINUOUS
370
     5
100
AcDbCircle
 10
1.83206292
 20
-5.56905067
 30
0.0
 40
8.3938999992597E-05
100
AcDbArc
 50
208.96883701
 51
313.96883703
  0
ARC
  5
3E0
100
AcDbEntity
  8
detail
 62
    16
  6
CONTINUOUS
370
     5
100
AcDbCircle
 10
1.83202514
 20
-5.56898242
 30
0.0
 40
8.3938999998896E-05
100
AcDbArc
 50
133.968829
 51
208.96885202
  0
ARC
  5
3E1
100
AcDbEntity
  8
detail
 62
    16
  6
CONTINUOUS
370
     5
100
AcDbCircle
 10
1.83201231
 20
-5.56890149
 30
0.0
 40
1.6787800007801E-05
100
AcDbArc
 50
333.96879802
 51
133.96885097
  0
ARC
  5
3E2
100
AcDbEntity
  8
detail
 62
    16
  6
CONTINUOUS
370
     5
100
AcDbCircle
 10
1.83202379
 20
-5.56898
 30
0.0
 40
2.7979699987782E-05
100
AcDbArc
 50
153.96882898
 51
208.96883104
  0
ARC
  5
3E3
100
AcDbEntity
  8
detail
 62
    16
  6
CONTINUOUS
370
     5
100
AcDbCircle
 10
1.83206412
 20
-5.56899508
 30
0.0
 40
5.5959299996781E-05
100
AcDbArc
 50
208.96884602
 51
313.96884102
  0
ARC
  5
3E4
100
AcDbEntity
  8
detail
 62
    16
  6
CONTINUOUS
370
     5
100
AcDbCircle
 10
1.83206292
 20
-5.56905067
 30
0.0
 40
8.3938999992597E-05
100
AcDbArc
 50
208.96883701
 51
313.96883703
  0
ARC
  5
3E5
100
AcDbEntity
  8
detail
 62
    16
  6
CONTINUOUS
370
     5
100
AcDbCircle
 10
1.83202514
 20
-5.56898242
 30
0.0
 40
8.3938999998896E-05
100
AcDbArc
 50
133.968829
 51
208.96885202
  0
ARC
  5
3E6
100
AcDbEntity
  8
detail
 62
    16
  6
CONTINUOUS
370
     5
100
AcDbCircle
 10
1.83201231
 20
-5.56890149
 30
0.0
 40
1.6787800007801E-05
100
AcDbArc
 50
333.96879802
 51
133.96885097
  0
ARC
  5
3E7
100
AcDbEntity
  8
detail
 62
    16
  6
CONTINUOUS
370
     5
100
AcDbCircle
 10
1.83202379
 20
-5.56898
 30
0.0
 40
2.7979699987782E-05
100
AcDbArc
 50
153.96882898
 51
208.96883104
  0
ARC
  5
3E8
100
AcDbEntity
  8
detail
 62
    16
  6
CONTINUOUS
370
     5
100
AcDbCircle
 10
1.83206412
 20
-5.56899508
 30
0.0
 40
5.5959299996781E-05
100
AcDbArc
 50
208.96884602
 51
313.96884102
  0
ARC
  5
3E9
100
AcDbEntity
  8
detail
 62
    16
  6
CONTINUOUS
370
     5
100
AcDbCircle
 10
1.83206292
 20
-5.56905067
 30
0.0
 40
8.3938999992597E-05
100
AcDbArc
 50
208.96883701
 51
313.96883703
  0
ARC
  5
3EA
100
AcDbEntity
  8
detail
 62
    16
  6
CONTINUOUS
370
     5
100
AcDbCircle
 10
1.83202514
 20
-5.56898242
 30
0.0
 40
8.3938999998896E-05
100
AcDbArc
 50
133.968829
 51
208.96885202
  0
ARC
  5
3EB
100
AcDbEntity
  8
detail
 62
    16
  6
CONTINUOUS
370
     5
100
AcDbCircle
 10
1.83201231
 20
-5.56890149
 30
0.0
 40
1.6787800007801E-05
100
AcDbArc
 50
333.96879802
 51
133.96885097
  0
ARC
  5
3EC
100
AcDbEntity
  8
detail
 62
    16
  6
CONTINUOUS
370
     5
100
AcDbCircle
 10
1.83202379
 20
-5.56898
 30
0.0
 40
2.7979699987782E-05
100
AcDbArc
 50
153.96882898
 51
208.96883104
  0
ARC
  5
3ED
100
AcDbEntity
  8
detail
 62
    16
  6
CONTINUOUS
370
     5
100
AcDbCircle
 10
1.83206412
 20
-5.56899508
 30
0.0
 40
5.5959299996781E-05
100
AcDbArc
 50
208.96884602
 51
313.96884102
  0
ARC
  5
3EE
100
AcDbEntity
  8
detail
 62
    16
  6
CONTINUOUS
370
     5
100
AcDbCircle
 10
1.83206292
 20
-5.56905067
 30
0.0
 40
8.3938999992597E-05
100
AcDbArc
 50
208.96883701
 51
313.96883703
  0
ARC
  5
3EF
100
AcDbEntity
  8
detail
 62
    16
  6
CONTINUOUS
370
     5
100
AcDbCircle
 10
1.83202514
 20
-5.56898242
 30
0.0
 40
8.3938999998896E-05
100
AcDbArc
 50
133.968829
 51
208.96885202
  0
ARC
  5
3F0
100
AcDbEntity
  8
detail
 62
    16
  6
CONTINUOUS
370
     5
100
AcDbCircle
 10
1.83201231
 20
-5.56890149
 30
0.0
 40
1.6787800007801E-05
100
AcDbArc
 50
333.96879802
 51
133.96885097
  0
ARC
  5
3F1
100
AcDbEntity
  8
detail
 62
    16
  6
CONTINUOUS
370
     5
100
AcDbCircle
 10
1.83202379
 20
-5.56898
 30
0.0
 40
2.7979699987782E-05
100
AcDbArc
 50
153.96882898
 51
208.96883104
  0
ARC
  5
3F2
100
AcDbEntity
  8
detail
 62
    16
  6
CONTINUOUS
370
     5
100
AcDbCircle
 10
1.83206412
 20
-5.56899508
 30
0.0
 40
5.5959299996781E-05
100
AcDbArc
 50
208.96884602
 51
313.96884102
  0
ARC
  5
3F3
100
AcDbEntity
  8
detail
 62
    16
  6
CONTINUOUS
370
     5
100
AcDbCircle
 10
1.83206292
 20
-5.56905067
 30
0.0
 40
8.3938999992597E-05
100
AcDbArc
 50
208.96883701
 51
313.96883703
  0
ARC
  5
3F4
100
AcDbEntity
  8
detail
 62
    16
  6
CONTINUOUS
370
     5
100
AcDbCircle
 10
1.83202514
 20
-5.56898242
 30
0.0
 40
8.3938999998896E-05
100
AcDbArc
 50
133.968829
 51
208.96885202
  0
ARC
  5
3F5
100
AcDbEntity
  8
detail
 62
    16
  6
CONTINUOUS
370
     5
100
AcDbCircle
 10
1.83201231
 20
-5.56890149
 30
0.0
 40
1.6787800007801E-05
100
AcDbArc
 50
333.96879802
 51
133.96885097
  0
ARC
  5
3F6
100
AcDbEntity
  8
detail
 62
    16
  6
CONTINUOUS
370
     5
100
AcDbCircle
 10
1.83202379
 20
-5.56898
 30
0.0
 40
2.7979699987782E-05
100
AcDbArc
 50
153.96882898
 51
208.96883104
  0
ARC
  5
3F7
100
AcDbEntity
  8
detail
 62
    16
  6
CONTINUOUS
370
     5
100
AcDbCircle
 10
1.83206412
 20
-5.56899508
 30
0.0
 40
5.5959299996781E-05
100
AcDbArc
 50
208.96884602
 51
313.96884102
  0
ARC
  5
3F8
100
AcDbEntity
  8
detail
 62
    16
  6
CONTINUOUS
370
     5
100
AcDbCircle
 10
1.83206292
 20
-5.56905067
 30
0.0
 40
8.3938999992597E-05
100
AcDbArc
 50
208.96883701
 51
313.96883703
  0
ARC
  5
3F9
100
AcDbEntity
  8
detail
 62
    16
  6
CONTINUOUS
370
     5
100
AcDbCircle
 10
1.83202514
 20
-5.56898242
 30
0.0
 40
8.3938999998896E-05
100
AcDbArc
 50
133.968829
 51
208.96885202
  0
ARC
  5
3FA
100
AcDbEntity
  8
detail
 62
    16
  6
CONTINUOUS
370
     5
100
AcDbCircle
 10
1.83201231
 20
-5.56890149
 30
0.0
 40
1.6787800007801E-05
100
AcDbArc
 50
333.96879802
 51
133.96885097
  0
ARC
  5
3FB
100
AcDbEntity
  8
detail
 62
    16
  6
CONTINUOUS
370
     5
100
AcDbCircle
 10
1.83202379
 20
-5.56898
 30
0.0
 40
2.7979699987782E-05
100
AcDbArc
 50
153.96882898
 51
208.96883104
  0
ARC
  5
3FC
100
AcDbEntity
  8
detail
 62
    16
  6
CONTINUOUS
370
     5
100
AcDbCircle
 10
1.83206412
 20
-5.56899508
 30
0.0
 40
5.5959299996781E-05
100
AcDbArc
 50
208.96884602
 51
313.96884102
  0
ARC
  5
3FD
100
AcDbEntity
  8
detail
 62
    16
  6
CONTINUOUS
370
     5
100
AcDbCircle
 10
1.83221512
 20
-5.56870429
 30
0.0
 40
0.00021824
100
AcDbArc
 50
313.96883998
 51
322.52223806
  0
ARC
  5
3FE
100
AcDbEntity
  8
detail
 62
    16
  6
CONTINUOUS
370
     5
100
AcDbCircle
 10
1.83273592
 20
-5.56839926
 30
0.0
 40
9.3310999955949E-06
100
AcDbArc
 50
310.914393
 51
70.78877604
  0
ARC
  5
3FF
100
AcDbEntity
  8
detail
 62
    16
  6
CONTINUOUS
370
     5
100
AcDbCircle
 10
1.83217279
 20
-5.56872199
 30
0.0
 40
0.00018359
100
AcDbArc
 50
43.96882999
 51
133.96882901
  0
ARC
  5
400
100
AcDbEntity
  8
detail
 62
    16
  6
CONTINUOUS
370
     5
100
AcDbCircle
 10
1.83252597
 20
-5.56878765
 30
0.0
 40
0.00053148
100
AcDbArc
 50
55.689104
 51
118.564341
  0
ARC
  5
401
100
AcDbEntity
  8
detail
 62
    16
  6
CONTINUOUS
370
     5
100
AcDbCircle
 10
1.83253189
 20
-5.56871353
 30
0.0
 40
0.00038452
100
AcDbArc
 50
57.27584
 51
122.73106
  0
ARC
  5
402
100
AcDbEntity
  8
detail
 62
    16
  6
CONTINUOUS
370
     5
100
AcDbCircle
 10
1.8317698
 20
-5.56882702
 30
0.0
 40
2.7979699472890E-05
100
AcDbArc
 50
313.96882184
 51
329.12414715
  0
ARC
  5
403
100
AcDbEntity
  8
detail
 62
    16
  6
CONTINUOUS
370
     5
100
AcDbCircle
 10
1.8317394
 20
-5.56885634
 30
0.0
 40
2.7979699997065E-05
100
AcDbArc
 50
149.543689
 51
313.96884301
  0
ARC
  5
404
100
AcDbEntity
  8
detail
 62
    16
  6
CONTINUOUS
370
     5
100
AcDbCircle
 10
1.8317698
 20
-5.56882702
 30
0.0
 40
2.7979699472890E-05
100
AcDbArc
 50
313.96882184
 51
329.12414715
  0
ARC
  5
405
100
AcDbEntity
  8
detail
 62
    16
  6
CONTINUOUS
370
     5
100
AcDbCircle
 10
1.8317394
 20
-5.56885634
 30
0.0
 40
2.7979699997065E-05
100
AcDbArc
 50
149.543689
 51
313.96884301
  0
ARC
  5
406
100
AcDbEntity
  8
detail
 62
    16
  6
CONTINUOUS
370
     5
100
AcDbCircle
 10
1.8317698
 20
-5.56882702
 30
0.0
 40
2.7979699472890E-05
100
AcDbArc
 50
313.96882184
 51
329.12414715
  0
ARC
  5
407
100
AcDbEntity
  8
detail
 62
    16
  6
CONTINUOUS
370
     5
100
AcDbCircle
 10
1.8317394
 20
-5.56885634
 30
0.0
 40
2.7979699997065E-05
100
AcDbArc
 50
149.543689
 51
313.96884301
  0
ARC
  5
408
100
AcDbEntity
  8
detail
 62
    16
  6
CONTINUOUS
370
     5
100
AcDbCircle
 10
1.8317698
 20
-5.56882702
 30
0.0
 40
2.7979699472890E-05
100
AcDbArc
 50
313.96882184
 51
329.12414715
  0
ARC
  5
409
100
AcDbEntity
  8
detail
 62
    16
  6
CONTINUOUS
370
     5
100
AcDbCircle
 10
1.8317394
 20
-5.56885634
 30
0.0
 40
2.7979699997065E-05
100
AcDbArc
 50
149.543689
 51
313.96884301
  0
ARC
  5
40A
100
AcDbEntity
  8
detail
 62
    16
  6
CONTINUOUS
370
     5
100
AcDbCircle
 10
1.8317698
 20
-5.56882702
 30
0.0
 40
2.7979699472890E-05
100
AcDbArc
 50
313.96882184
 51
329.12414715
  0
ARC
  5
40B
100
AcDbEntity
  8
detail
 62
    16
  6
CONTINUOUS
370
     5
100
AcDbCircle
 10
1.8317394
 20
-5.56885634
 30
0.0
 40
2.7979699997065E-05
100
AcDbArc
 50
149.543689
 51
313.96884301
  0
ARC
  5
40C
100
AcDbEntity
  8
detail
 62
    16
  6
CONTINUOUS
370
     5
100
AcDbCircle
 10
1.8317698
 20
-5.56882702
 30
0.0
 40
2.7979699472890E-05
100
AcDbArc
 50
313.96882184
 51
329.12414715
  0
ARC
  5
40D
100
AcDbEntity
  8
detail
 62
    16
  6
CONTINUOUS
370
     5
100
AcDbCircle
 10
1.8317394
 20
-5.56885634
 30
0.0
 40
2.7979699997065E-05
100
AcDbArc
 50
149.543689
 51
313.96884301
  0
ARC
  5
40E
100
AcDbEntity
  8
detail
 62
    16
  6
CONTINUOUS
370
     5
100
AcDbCircle
 10
1.8317698
 20
-5.56882702
 30
0.0
 40
2.7979699472890E-05
100
AcDbArc
 50
313.96882184
 51
329.12414715
  0
ARC
  5
40F
100
AcDbEntity
  8
detail
 62
    16
  6
CONTINUOUS
370
     5
100
AcDbCircle
 10
1.8317394
 20
-5.56885634
 30
0.0
 40
2.7979699997065E-05
100
AcDbArc
 50
149.543689
 51
313.96884301
  0
ARC
  5
410
100
AcDbEntity
  8
detail
 62
    16
  6
CONTINUOUS
370
     5
100
AcDbCircle
 10
1.8317698
 20
-5.56882702
 30
0.0
 40
2.7979699472890E-05
100
AcDbArc
 50
313.96882184
 51
329.12414715
  0
ARC
  5
411
100
AcDbEntity
  8
detail
 62
    16
  6
CONTINUOUS
370
     5
100
AcDbCircle
 10
1.8317394
 20
-5.56885634
 30
0.0
 40
2.7979699997065E-05
100
AcDbArc
 50
149.543689
 51
313.96884301
  0
ARC
  5
412
100
AcDbEntity
  8
detail
 62
    16
  6
CONTINUOUS
370
     5
100
AcDbCircle
 10
1.8317698
 20
-5.56882702
 30
0.0
 40
2.7979699472890E-05
100
AcDbArc
 50
313.96882184
 51
329.12414715
  0
ARC
  5
413
100
AcDbEntity
  8
detail
 62
    16
  6
CONTINUOUS
370
     5
100
AcDbCircle
 10
1.8317394
 20
-5.56885634
 30
0.0
 40
2.7979699997065E-05
100
AcDbArc
 50
149.543689
 51
313.96884301
  0
ARC
  5
414
100
AcDbEntity
  8
detail
 62
    16
  6
CONTINUOUS
370
     5
100
AcDbCircle
 10
1.8317698
 20
-5.56882702
 30
0.0
 40
2.7979699472890E-05
100
AcDbArc
 50
313.96882184
 51
329.12414715
  0
ARC
  5
415
100
AcDbEntity
  8
detail
 62
    16
  6
CONTINUOUS
370
     5
100
AcDbCircle
 10
1.8317394
 20
-5.56885634
 30
0.0
 40
2.7979699997065E-05
100
AcDbArc
 50
149.543689
 51
313.96884301
  0
ARC
  5
416
100
AcDbEntity
  8
detail
 62
    16
  6
CONTINUOUS
370
     5
100
AcDbCircle
 10
1.8317698
 20
-5.56882702
 30
0.0
 40
2.7979699472890E-05
100
AcDbArc
 50
313.96882184
 51
329.12414715
  0
ARC
  5
417
100
AcDbEntity
  8
detail
 62
    16
  6
CONTINUOUS
370
     5
100
AcDbCircle
 10
1.8317394
 20
-5.56885634
 30
0.0
 40
2.7979699997065E-05
100
AcDbArc
 50
149.543689
 51
313.96884301
  0
ARC
  5
418
100
AcDbEntity
  8
detail
 62
    16
  6
CONTINUOUS
370
     5
100
AcDbCircle
 10
1.8317698
 20
-5.56882702
 30
0.0
 40
2.7979699472890E-05
100
AcDbArc
 50
313.96882184
 51
329.12414715
  0
ARC
  5
419
100
AcDbEntity
  8
detail
 62
    16
  6
CONTINUOUS
370
     5
100
AcDbCircle
 10
1.8317394
 20
-5.56885634
 30
0.0
 40
2.7979699997065E-05
100
AcDbArc
 50
149.543689
 51
313.96884301
  0
ARC
  5
41A
100
AcDbEntity
  8
detail
 62
    16
  6
CONTINUOUS
370
     5
100
AcDbCircle
 10
1.8317698
 20
-5.56882702
 30
0.0
 40
2.7979699472890E-05
100
AcDbArc
 50
313.96882184
 51
329.12414715
  0
ARC
  5
41B
100
AcDbEntity
  8
detail
 62
    16
  6
CONTINUOUS
370
     5
100
AcDbCircle
 10
1.8317394
 20
-5.56885634
 30
0.0
 40
2.7979699997065E-05
100
AcDbArc
 50
149.543689
 51
313.96884301
  0
ARC
  5
41C
100
AcDbEntity
  8
detail
 62
    16
  6
CONTINUOUS
370
     5
100
AcDbCircle
 10
1.8317698
 20
-5.56882702
 30
0.0
 40
2.7979699472890E-05
100
AcDbArc
 50
313.96882184
 51
329.12414715
  0
ARC
  5
41D
100
AcDbEntity
  8
detail
 62
    16
  6
CONTINUOUS
370
     5
100
AcDbCircle
 10
1.8317394
 20
-5.56885634
 30
0.0
 40
2.7979699997065E-05
100
AcDbArc
 50
149.543689
 51
313.96884301
  0
ARC
  5
41E
100
AcDbEntity
  8
detail
 62
    16
  6
CONTINUOUS
370
     5
100
AcDbCircle
 10
1.8317698
 20
-5.56882702
 30
0.0
 40
2.7979699472890E-05
100
AcDbArc
 50
313.96882184
 51
329.12414715
  0
ARC
  5
41F
100
AcDbEntity
  8
detail
 62
    16
  6
CONTINUOUS
370
     5
100
AcDbCircle
 10
1.8317394
 20
-5.56885634
 30
0.0
 40
2.7979699997065E-05
100
AcDbArc
 50
149.543689
 51
313.96884301
  0
ARC
  5
420
100
AcDbEntity
  8
detail
 62
    16
  6
CONTINUOUS
370
     5
100
AcDbCircle
 10
1.8317698
 20
-5.56882702
 30
0.0
 40
2.7979699472890E-05
100
AcDbArc
 50
313.96882184
 51
329.12414715
  0
ARC
  5
421
100
AcDbEntity
  8
detail
 62
    16
  6
CONTINUOUS
370
     5
100
AcDbCircle
 10
1.8317394
 20
-5.56885634
 30
0.0
 40
2.7979699997065E-05
100
AcDbArc
 50
149.543689
 51
313.96884301
  0
ARC
  5
422
100
AcDbEntity
  8
detail
 62
    16
  6
CONTINUOUS
370
     5
100
AcDbCircle
 10
1.83217075
 20
-5.56871056
 30
0.0
 40
0.00017738
100
AcDbArc
 50
313.96884102
 51
40.85046
  0
ARC
  5
423
100
AcDbEntity
  8
detail
 62
    16
  6
CONTINUOUS
370
     5
100
AcDbCircle
 10
1.83217075
 20
-5.56871056
 30
0.0
 40
0.00017738
100
AcDbArc
 50
313.96884102
 51
40.85046
  0
ARC
  5
424
100
AcDbEntity
  8
detail
 62
    16
  6
CONTINUOUS
370
     5
100
AcDbCircle
 10
1.83282125
 20
-5.56845841
 30
0.0
 40
9.4816500002840E-05
100
AcDbArc
 50
146.215737
 51
62.27187
  0
ARC
  5
425
100
AcDbEntity
  8
detail
 62
    16
  6
CONTINUOUS
370
     5
100
AcDbCircle
 10
1.83217075
 20
-5.56871056
 30
0.0
 40
0.00025153
100
AcDbArc
 50
329.56322102
 51
82.937731
  0
ARC
  5
426
100
AcDbEntity
  8
detail
 62
    16
  6
CONTINUOUS
370
     5
100
AcDbCircle
 10
1.83726071
 20
-5.57378429
 30
0.0
 40
0.00017143
100
AcDbArc
 50
105.310213
 51
191.91019002
  0
ARC
  5
427
100
AcDbEntity
  8
detail
 62
    16
  6
CONTINUOUS
370
     5
100
AcDbCircle
 10
1.83906726
 20
-5.57327602
 30
0.0
 40
0.00204777
100
AcDbArc
 50
331.12443302
 51
344.60420202
  0
ARC
  5
428
100
AcDbEntity
  8
detail
 62
    16
  6
CONTINUOUS
370
     5
100
AcDbCircle
 10
1.83906726
 20
-5.57327602
 30
0.0
 40
0.00204777
100
AcDbArc
 50
195.39581802
 51
208.87558602
  0
ARC
  5
429
100
AcDbEntity
  8
detail
 62
    16
  6
CONTINUOUS
370
     5
100
AcDbCircle
 10
1.84087381
 20
-5.57276774
 30
0.0
 40
0.00017143
100
AcDbArc
 50
285.31022302
 51
11.910181
  0
ARC
  5
42A
100
AcDbEntity
  8
detail
 62
    16
  6
CONTINUOUS
370
     5
100
AcDbCircle
 10
1.83906726
 20
-5.57327602
 30
0.0
 40
0.00204777
100
AcDbArc
 50
331.12443302
 51
344.60420202
  0
ARC
  5
42B
100
AcDbEntity
  8
detail
 62
    16
  6
CONTINUOUS
370
     5
100
AcDbCircle
 10
1.83726071
 20
-5.57276774
 30
0.0
 40
0.00017143
100
AcDbArc
 50
168.089819
 51
254.68979702
  0
ARC
  5
42C
100
AcDbEntity
  8
detail
 62
    16
  6
CONTINUOUS
370
     5
100
AcDbCircle
 10
1.83906726
 20
-5.57327602
 30
0.0
 40
0.00204777
100
AcDbArc
 50
195.39581802
 51
208.87558602
  0
ARC
  5
42D
100
AcDbEntity
  8
detail
 62
    16
  6
CONTINUOUS
370
     5
100
AcDbCircle
 10
1.84087381
 20
-5.57276774
 30
0.0
 40
0.00017143
100
AcDbArc
 50
285.31022302
 51
11.910181
  0
ARC
  5
42E
100
AcDbEntity
  8
detail
 62
    16
  6
CONTINUOUS
370
     5
100
AcDbCircle
 10
1.83906726
 20
-5.57327602
 30
0.0
 40
0.00204777
100
AcDbArc
 50
331.12443302
 51
344.60420202
  0
ARC
  5
42F
100
AcDbEntity
  8
detail
 62
    16
  6
CONTINUOUS
370
     5
100
AcDbCircle
 10
1.83726071
 20
-5.57276774
 30
0.0
 40
0.00017143
100
AcDbArc
 50
168.089819
 51
254.68979702
  0
ARC
  5
430
100
AcDbEntity
  8
detail
 62
    16
  6
CONTINUOUS
370
     5
100
AcDbCircle
 10
1.83906726
 20
-5.57327602
 30
0.0
 40
0.00204777
100
AcDbArc
 50
195.39581802
 51
208.87558602
  0
ARC
  5
431
100
AcDbEntity
  8
detail
 62
    16
  6
CONTINUOUS
370
     5
100
AcDbCircle
 10
1.84087381
 20
-5.57276774
 30
0.0
 40
0.00017143
100
AcDbArc
 50
285.31022302
 51
11.910181
  0
ARC
  5
432
100
AcDbEntity
  8
detail
 62
    16
  6
CONTINUOUS
370
     5
100
AcDbCircle
 10
1.84087381
 20
-5.57378429
 30
0.0
 40
0.00017143
100
AcDbArc
 50
348.08983002
 51
74.689787
  0
ARC
  5
433
100
AcDbEntity
  8
detail
 62
    16
  6
CONTINUOUS
370
     5
100
AcDbCircle
 10
1.83906726
 20
-5.57327602
 30
0.0
 40
0.00204777
100
AcDbArc
 50
331.12443302
 51
344.60420202
  0
ARC
  5
434
100
AcDbEntity
  8
detail
 62
    16
  6
CONTINUOUS
370
     5
100
AcDbCircle
 10
1.83726071
 20
-5.57276774
 30
0.0
 40
0.00017143
100
AcDbArc
 50
168.089819
 51
254.68979702
  0
ARC
  5
435
100
AcDbEntity
  8
detail
 62
    16
  6
CONTINUOUS
370
     5
100
AcDbCircle
 10
1.83906726
 20
-5.57327602
 30
0.0
 40
0.00204777
100
AcDbArc
 50
195.39581802
 51
208.87558602
  0
ARC
  5
436
100
AcDbEntity
  8
detail
 62
    16
  6
CONTINUOUS
370
     5
100
AcDbCircle
 10
1.83906726
 20
-5.57601945
 30
0.0
 40
0.00072505
100
AcDbArc
 50
204.51138602
 51
335.48863402
  0
ARC
  5
437
100
AcDbEntity
  8
detail
 62
    16
  6
CONTINUOUS
370
     5
100
AcDbCircle
 10
1.83721545
 20
-5.57327602
 30
0.0
 40
0.00034293
100
AcDbArc
 50
270.00001002
 51
90.0
  0
ARC
  5
438
100
AcDbEntity
  8
detail
 62
    16
  6
CONTINUOUS
370
     5
100
AcDbCircle
 10
1.84091907
 20
-5.57327602
 30
0.0
 40
0.00034293
100
AcDbArc
 50
90.0
 51
270.00001002
  0
ARC
  5
439
100
AcDbEntity
  8
detail
 62
    16
  6
CONTINUOUS
370
     5
100
AcDbCircle
 10
1.84087381
 20
-5.57276774
 30
0.0
 40
0.00017143
100
AcDbArc
 50
285.31022302
 51
11.910181
  0
ARC
  5
43A
100
AcDbEntity
  8
detail
 62
    16
  6
CONTINUOUS
370
     5
100
AcDbCircle
 10
1.84087381
 20
-5.57378429
 30
0.0
 40
0.00017143
100
AcDbArc
 50
348.08983002
 51
74.689787
  0
ARC
  5
43B
100
AcDbEntity
  8
detail
 62
    16
  6
CONTINUOUS
370
     5
100
AcDbCircle
 10
1.83726071
 20
-5.57276774
 30
0.0
 40
0.00017143
100
AcDbArc
 50
168.089819
 51
254.68979702
  0
ARC
  5
43C
100
AcDbEntity
  8
detail
 62
    16
  6
CONTINUOUS
370
     5
100
AcDbCircle
 10
1.83906726
 20
-5.57327602
 30
0.0
 40
0.00204777
100
AcDbArc
 50
15.395808
 51
164.604192
  0
ARC
  5
43D
100
AcDbEntity
  8
detail
 62
    16
  6
CONTINUOUS
370
     5
100
AcDbCircle
 10
1.83906726
 20
-5.57601945
 30
0.0
 40
0.00072505
100
AcDbArc
 50
204.51138602
 51
335.48863402
  0
ARC
  5
43E
100
AcDbEntity
  8
detail
 62
    16
  6
CONTINUOUS
370
     5
100
AcDbCircle
 10
1.83906726
 20
-5.57601945
 30
0.0
 40
0.00072505
100
AcDbArc
 50
204.51138602
 51
335.48863402
  0
ARC
  5
43F
100
AcDbEntity
  8
detail
 62
    16
  6
CONTINUOUS
370
     5
100
AcDbCircle
 10
1.83906726
 20
-5.57601945
 30
0.0
 40
0.00072505
100
AcDbArc
 50
204.51138602
 51
335.48863402
  0
ARC
  5
440
100
AcDbEntity
  8
detail
 62
    16
  6
CONTINUOUS
370
     5
100
AcDbCircle
 10
1.83456529
 20
-5.57782635
 30
0.0
 40
0.0005599
100
AcDbArc
 50
39.169975
 51
140.830025
  0
ARC
  5
441
100
AcDbEntity
  8
detail
 62
    16
  6
CONTINUOUS
370
     5
100
AcDbCircle
 10
1.83456529
 20
-5.58033469
 30
0.0
 40
0.00175
100
AcDbArc
 50
1.1910904663111E-10
 51
180.0
  0
ARC
  5
442
100
AcDbEntity
  8
detail
 62
    16
  6
CONTINUOUS
370
     5
100
AcDbCircle
 10
1.83485882
 20
-5.58493469
 30
0.0
 40
5.0000000001455E-05
100
AcDbArc
 50
90.0
 51
270.00001002
  0
ARC
  5
443
100
AcDbEntity
  8
detail
 62
    16
  6
CONTINUOUS
370
     5
100
AcDbCircle
 10
1.8337277
 20
-5.58052483
 30
0.0
 40
8.2922199992754E-05
100
AcDbArc
 50
270.00001001
 51
3.0164298336058E-09
  0
ARC
  5
444
100
AcDbEntity
  8
detail
 62
    16
  6
CONTINUOUS
370
     5
100
AcDbCircle
 10
1.83286529
 20
-5.58493511
 30
0.0
 40
5.0000000000000E-05
100
AcDbArc
 50
180.00001002
 51
360.00001002
  0
ARC
  5
445
100
AcDbEntity
  8
detail
 62
    16
  6
CONTINUOUS
370
     5
100
AcDbCircle
 10
1.83301529
 20
-5.58053469
 30
0.0
 40
0.0002
100
AcDbArc
 50
90.0
 51
180.00001002
  0
ARC
  5
446
100
AcDbEntity
  8
detail
 62
    16
  6
CONTINUOUS
370
     5
100
AcDbCircle
 10
1.83556777
 20
-5.58475656
 30
0.0
 40
0.00023197
100
AcDbArc
 50
130.316118
 51
213.52956402
  0
ARC
  5
447
100
AcDbEntity
  8
detail
 62
    16
  6
CONTINUOUS
370
     5
100
AcDbCircle
 10
1.83626714
 20
-5.58038469
 30
0.0
 40
5.0000000002547E-05
100
AcDbArc
 50
360.00001001
 51
156.831906
  0
ARC
  5
448
100
AcDbEntity
  8
detail
 62
    16
  6
CONTINUOUS
370
     5
100
AcDbCircle
 10
1.83563328
 20
-5.58430268
 30
0.0
 40
0.00058201
100
AcDbArc
 50
270.00001002
 51
8.5953579082095E-10
  0
ARC
  5
449
100
AcDbEntity
  8
detail
 62
    16
  6
CONTINUOUS
370
     5
100
AcDbCircle
 10
1.83563328
 20
-5.58430268
 30
0.0
 40
0.00068201
100
AcDbArc
 50
270.00001002
 51
7.3350590548304E-10
  0
ARC
  5
44A
100
AcDbEntity
  8
detail
 62
    16
  6
CONTINUOUS
370
     5
100
AcDbCircle
 10
1.8337277
 20
-5.58041761
 30
0.0
 40
8.2922199927223E-05
100
AcDbArc
 50
27.04337597
 51
90.00000003
  0
ARC
  5
44B
100
AcDbEntity
  8
detail
 62
    16
  6
CONTINUOUS
370
     5
100
AcDbCircle
 10
1.83611529
 20
-5.58057991
 30
0.0
 40
0.0002
100
AcDbArc
 50
58.03346899
 51
90.00000001
  0
ARC
  5
44C
100
AcDbEntity
  8
detail
 62
    16
  6
CONTINUOUS
370
     5
100
AcDbCircle
 10
1.83301529
 20
-5.58053469
 30
0.0
 40
9.9999999996867E-05
100
AcDbArc
 50
5.633048
 51
180.00001002
  0
ARC
  5
44D
100
AcDbEntity
  8
detail
 62
    16
  6
CONTINUOUS
370
     5
100
AcDbCircle
 10
1.83319773
 20
-5.58052483
 30
0.0
 40
8.2922199990571E-05
100
AcDbArc
 50
180.0
 51
270.00001002
  0
ARC
  5
44E
100
AcDbEntity
  8
detail
 62
    16
  6
CONTINUOUS
370
     5
100
AcDbCircle
 10
1.83611529
 20
-5.58057991
 30
0.0
 40
0.0001
100
AcDbArc
 50
0.0
 51
90.0
  0
ARC
  5
44F
100
AcDbEntity
  8
detail
 62
    16
  6
CONTINUOUS
370
     5
100
AcDbCircle
 10
1.83386036
 20
-5.58051337
 30
0.0
 40
4.9741900045811E-05
100
AcDbArc
 50
137.73739801
 51
179.99999998
  0
ARC
  5
450
100
AcDbEntity
  8
detail
 62
    16
  6
CONTINUOUS
370
     5
100
AcDbCircle
 10
1.83456529
 20
-5.58452968
 30
0.0
 40
5.0000000000000E-05
100
AcDbArc
 50
90.0
 51
270.00001002
  0
ARC
  5
451
100
AcDbEntity
  8
detail
 62
    16
  6
CONTINUOUS
370
     5
100
AcDbCircle
 10
1.83556777
 20
-5.58475656
 30
0.0
 40
0.00014
100
AcDbArc
 50
118.152177
 51
246.24094702
  0
ARC
  5
452
100
AcDbEntity
  8
detail
 62
    16
  6
CONTINUOUS
370
     5
100
AcDbCircle
 10
1.83560806
 20
-5.58452333
 30
0.0
 40
4.4131199998577E-05
100
AcDbArc
 50
321.13811601
 51
81.54053201
  0
ARC
  5
453
100
AcDbEntity
  8
detail
 62
    16
  6
CONTINUOUS
370
     5
100
AcDbCircle
 10
1.83820581
 20
-5.57777794
 30
0.0
 40
0.000275
100
AcDbArc
 50
270.00001002
 51
90.0
  0
ARC
  5
454
100
AcDbEntity
  8
detail
 62
    16
  6
CONTINUOUS
370
     5
100
AcDbCircle
 10
1.84375581
 20
-5.57777794
 30
0.0
 40
0.000275
100
AcDbArc
 50
90.0
 51
270.00001002
  0
ARC
  5
455
100
AcDbEntity
  8
detail
 62
    16
  6
CONTINUOUS
370
     5
100
AcDbCircle
 10
1.84145581
 20
-5.57777794
 30
0.0
 40
0.000275
100
AcDbArc
 50
270.00001002
 51
90.0
  0
ARC
  5
456
100
AcDbEntity
  8
detail
 62
    16
  6
CONTINUOUS
370
     5
100
AcDbCircle
 10
1.84050581
 20
-5.57777794
 30
0.0
 40
0.000275
100
AcDbArc
 50
90.0
 51
270.00001002
  0
ARC
  5
457
100
AcDbEntity
  8
detail
 62
    16
  6
CONTINUOUS
370
     5
100
AcDbCircle
 10
1.84428455
 20
-5.58357794
 30
0.0
 40
4.9999999998545E-05
100
AcDbArc
 50
90.0
 51
180.00001002
  0
ARC
  5
458
100
AcDbEntity
  8
detail
 62
    16
  6
CONTINUOUS
370
     5
100
AcDbCircle
 10
1.83767708
 20
-5.58357794
 30
0.0
 40
4.9999999998909E-05
100
AcDbArc
 50
360.00001002
 51
90.0
  0
ARC
  5
459
100
AcDbEntity
  8
detail
 62
    16
  6
CONTINUOUS
370
     5
100
AcDbCircle
 10
1.84397446
 20
-5.58488193
 30
0.0
 40
0.00035
100
AcDbArc
 50
72.271012
 51
360.00001002
  0
ARC
  5
45A
100
AcDbEntity
  8
detail
 62
    16
  6
CONTINUOUS
370
     5
100
AcDbCircle
 10
1.83798716
 20
-5.58488193
 30
0.0
 40
0.00035
100
AcDbArc
 50
180.00001002
 51
107.728988
  0
ARC
  5
45B
100
AcDbEntity
  8
detail
 62
    16
  6
CONTINUOUS
370
     5
100
AcDbCircle
 10
1.83820581
 20
-5.58077794
 30
0.0
 40
0.000275
100
AcDbArc
 50
270.00001002
 51
90.0
  0
ARC
  5
45C
100
AcDbEntity
  8
detail
 62
    16
  6
CONTINUOUS
370
     5
100
AcDbCircle
 10
1.83820581
 20
-5.57877794
 30
0.0
 40
0.000275
100
AcDbArc
 50
270.00001002
 51
90.0
  0
ARC
  5
45D
100
AcDbEntity
  8
detail
 62
    16
  6
CONTINUOUS
370
     5
100
AcDbCircle
 10
1.83820581
 20
-5.57977794
 30
0.0
 40
0.000275
100
AcDbArc
 50
270.00001002
 51
90.0
  0
ARC
  5
45E
100
AcDbEntity
  8
detail
 62
    16
  6
CONTINUOUS
370
     5
100
AcDbCircle
 10
1.84375581
 20
-5.57977794
 30
0.0
 40
0.000275
100
AcDbArc
 50
90.0
 51
270.00001002
  0
ARC
  5
45F
100
AcDbEntity
  8
detail
 62
    16
  6
CONTINUOUS
370
     5
100
AcDbCircle
 10
1.84375581
 20
-5.57877794
 30
0.0
 40
0.000275
100
AcDbArc
 50
90.0
 51
270.00001002
  0
ARC
  5
460
100
AcDbEntity
  8
detail
 62
    16
  6
CONTINUOUS
370
     5
100
AcDbCircle
 10
1.84375581
 20
-5.58077794
 30
0.0
 40
0.000275
100
AcDbArc
 50
90.0
 51
270.00001002
  0
ARC
  5
461
100
AcDbEntity
  8
detail
 62
    16
  6
CONTINUOUS
370
     5
100
AcDbCircle
 10
1.84050581
 20
-5.57977794
 30
0.0
 40
0.000275
100
AcDbArc
 50
90.0
 51
270.00001002
  0
ARC
  5
462
100
AcDbEntity
  8
detail
 62
    16
  6
CONTINUOUS
370
     5
100
AcDbCircle
 10
1.84145581
 20
-5.57977794
 30
0.0
 40
0.000275
100
AcDbArc
 50
270.00001002
 51
90.0
  0
ARC
  5
463
100
AcDbEntity
  8
detail
 62
    16
  6
CONTINUOUS
370
     5
100
AcDbCircle
 10
1.84050581
 20
-5.58077794
 30
0.0
 40
0.000275
100
AcDbArc
 50
90.0
 51
270.00001002
  0
ARC
  5
464
100
AcDbEntity
  8
detail
 62
    16
  6
CONTINUOUS
370
     5
100
AcDbCircle
 10
1.84145581
 20
-5.58077794
 30
0.0
 40
0.000275
100
AcDbArc
 50
270.00001002
 51
90.0
  0
ARC
  5
465
100
AcDbEntity
  8
detail
 62
    16
  6
CONTINUOUS
370
     5
100
AcDbCircle
 10
1.84145581
 20
-5.57877794
 30
0.0
 40
0.000275
100
AcDbArc
 50
270.00001002
 51
90.0
  0
ARC
  5
466
100
AcDbEntity
  8
detail
 62
    16
  6
CONTINUOUS
370
     5
100
AcDbCircle
 10
1.84050581
 20
-5.57877794
 30
0.0
 40
0.000275
100
AcDbArc
 50
90.0
 51
270.00001002
  0
ARC
  5
467
100
AcDbEntity
  8
detail
 62
    16
  6
CONTINUOUS
370
     5
100
AcDbCircle
 10
1.83857632
 20
-5.58389641
 30
0.0
 40
4.4887199996287E-05
100
AcDbArc
 50
315.00001003
 51
135.00000001
  0
ARC
  5
468
100
AcDbEntity
  8
detail
 62
    16
  6
CONTINUOUS
370
     5
100
AcDbCircle
 10
1.84341229
 20
-5.58389641
 30
0.0
 40
4.4887199996287E-05
100
AcDbArc
 50
44.99999999
 51
225.00001001
  0
ARC
  5
469
100
AcDbEntity
  8
detail
 62
    16
  6
CONTINUOUS
370
     5
100
AcDbCircle
 10
1.84083571
 20
-5.57081752
 30
0.0
 40
8.1474800023056E-05
100
AcDbArc
 50
45.00000001
 51
134.99999999
  0
ARC
  5
46A
100
AcDbEntity
  8
detail
 62
    16
  6
CONTINUOUS
370
     5
100
AcDbCircle
 10
1.8414882
 20
-5.57147002
 30
0.0
 40
8.1474800013538E-05
100
AcDbArc
 50
315.00001002
 51
44.99999999
  0
ARC
  5
46B
100
AcDbEntity
  8
detail
 62
    16
  6
CONTINUOUS
370
     5
100
AcDbCircle
 10
1.831821
 20
-5.58879387
 30
0.0
 40
0.00017525
100
AcDbArc
 50
6.91623
 51
177.920678
  0
ARC
  5
46C
100
AcDbEntity
  8
detail
 62
    16
  6
CONTINUOUS
370
     5
100
AcDbCircle
 10
1.831821
 20
-5.58879387
 30
0.0
 40
0.00014829
100
AcDbArc
 50
8.297827
 51
177.920678
  0
ARC
  5
46D
100
AcDbEntity
  8
detail
 62
    16
  6
CONTINUOUS
370
     5
100
AcDbCircle
 10
1.831821
 20
-5.58879387
 30
0.0
 40
0.00012133
100
AcDbArc
 50
357.82107102
 51
182.17665401
  0
ARC
  5
46E
100
AcDbEntity
  8
detail
 62
    16
  6
CONTINUOUS
370
     5
100
AcDbCircle
 10
1.83197324
 20
-5.58885227
 30
0.0
 40
3.3027500000996E-05
100
AcDbArc
 50
177.82105899
 51
8.12421702
  0
ARC
  5
46F
100
AcDbEntity
  8
detail
 62
    16
  6
CONTINUOUS
370
     5
100
AcDbCircle
 10
1.83197324
 20
-5.58885227
 30
0.0
 40
6.0663000026474E-06
100
AcDbArc
 50
179.11150101
 51
8.29782692
  0
ARC
  5
470
100
AcDbEntity
  8
detail
 62
    16
  6
CONTINUOUS
370
     5
100
AcDbCircle
 10
1.83843993
 20
-5.58700598
 30
0.0
 40
0.00711054
100
AcDbArc
 50
185.86280002
 51
195.70969702
  0
ARC
  5
471
100
AcDbEntity
  8
detail
 62
    16
  6
CONTINUOUS
370
     5
100
AcDbCircle
 10
1.83843993
 20
-5.58700598
 30
0.0
 40
0.0071375
100
AcDbArc
 50
176.187196
 51
185.06030502
  0
ARC
  5
472
100
AcDbEntity
  8
detail
 62
    16
  6
CONTINUOUS
370
     5
100
AcDbCircle
 10
1.83843993
 20
-5.58700598
 30
0.0
 40
0.0071375
100
AcDbArc
 50
185.81781302
 51
195.70969702
  0
ARC
  5
473
100
AcDbEntity
  8
detail
 62
    16
  6
CONTINUOUS
370
     5
100
AcDbCircle
 10
1.83183704
 20
-5.58529825
 30
0.0
 40
6.0662800000695E-05
100
AcDbArc
 50
329.61035302
 51
66.28708501
  0
ARC
  5
474
100
AcDbEntity
  8
detail
 62
    16
  6
CONTINUOUS
370
     5
100
AcDbCircle
 10
1.83183993
 20
-5.58529958
 30
0.0
 40
3.3701499995268E-05
100
AcDbArc
 50
1.20309697
 51
66.787993
  0
ARC
  5
475
100
AcDbEntity
  8
detail
 62
    16
  6
CONTINUOUS
370
     5
100
AcDbCircle
 10
1.83843993
 20
-5.58700598
 30
0.0
 40
0.0071375
100
AcDbArc
 50
166.632902
 51
175.429689
  0
ARC
  5
476
100
AcDbEntity
  8
detail
 62
    16
  6
CONTINUOUS
370
     5
100
AcDbCircle
 10
1.83843993
 20
-5.58700598
 30
0.0
 40
0.00711054
100
AcDbArc
 50
166.632902
 51
175.384715
  0
ARC
  5
477
100
AcDbEntity
  8
detail
 62
    16
  6
CONTINUOUS
370
     5
100
AcDbCircle
 10
1.83843993
 20
-5.58700598
 30
0.0
 40
0.00711054
100
AcDbArc
 50
176.232189
 51
185.01532502
  0
ARC
  5
478
100
AcDbEntity
  8
detail
 62
    16
  6
CONTINUOUS
370
     5
100
AcDbCircle
 10
1.83477508
 20
-5.58665343
 30
0.0
 40
0.00320208
100
AcDbArc
 50
154.974186
 51
211.95055102
  0
ARC
  5
479
100
AcDbEntity
  8
detail
 62
    16
  6
CONTINUOUS
370
     5
100
AcDbCircle
 10
1.83477508
 20
-5.58665343
 30
0.0
 40
0.00317516
100
AcDbArc
 50
155.345613
 51
211.97619202
  0
ARC
  5
47A
100
AcDbEntity
  8
detail
 62
    16
  6
CONTINUOUS
370
     5
100
AcDbCircle
 10
1.83160148
 20
-5.58892943
 30
0.0
 40
3.3701500000809E-05
100
AcDbArc
 50
195.70969701
 51
358.98758503
  0
ARC
  5
47B
100
AcDbEntity
  8
detail
 62
    16
  6
CONTINUOUS
370
     5
100
AcDbCircle
 10
1.83183983
 20
-5.58841204
 30
0.0
 40
0.00022243
100
AcDbArc
 50
357.45217302
 51
178.98758
  0
ARC
  5
47C
100
AcDbEntity
  8
detail
 62
    16
  6
CONTINUOUS
370
     5
100
AcDbCircle
 10
1.83160148
 20
-5.58892943
 30
0.0
 40
6.7402999999122E-06
100
AcDbArc
 50
195.70969697
 51
358.98758511
  0
ARC
  5
47D
100
AcDbEntity
  8
detail
 62
    16
  6
CONTINUOUS
370
     5
100
AcDbCircle
 10
1.83183983
 20
-5.58841204
 30
0.0
 40
0.00019547
100
AcDbArc
 50
357.45217302
 51
178.98758
  0
ARC
  5
47E
100
AcDbEntity
  8
detail
 62
    16
  6
CONTINUOUS
370
     5
100
AcDbCircle
 10
1.83194011
 20
-5.58841314
 30
0.0
 40
0.00013481
100
AcDbArc
 50
355.91910902
 51
28.92946499
  0
ARC
  5
47F
100
AcDbEntity
  8
detail
 62
    16
  6
CONTINUOUS
370
     5
100
AcDbCircle
 10
1.83194011
 20
-5.58841314
 30
0.0
 40
0.00016177
100
AcDbArc
 50
355.91910901
 51
28.92946501
  0
ARC
  5
480
100
AcDbEntity
  8
detail
 62
    16
  6
CONTINUOUS
370
     5
100
AcDbCircle
 10
1.83180719
 20
-5.58479239
 30
0.0
 40
0.00017525
100
AcDbArc
 50
6.91623
 51
177.920678
  0
ARC
  5
481
100
AcDbEntity
  8
detail
 62
    16
  6
CONTINUOUS
370
     5
100
AcDbCircle
 10
1.83180719
 20
-5.58479239
 30
0.0
 40
0.00014829
100
AcDbArc
 50
8.297827
 51
177.920678
  0
ARC
  5
482
100
AcDbEntity
  8
detail
 62
    16
  6
CONTINUOUS
370
     5
100
AcDbCircle
 10
1.83180719
 20
-5.58479239
 30
0.0
 40
0.00012133
100
AcDbArc
 50
357.82107101
 51
182.17665402
  0
ARC
  5
483
100
AcDbEntity
  8
detail
 62
    16
  6
CONTINUOUS
370
     5
100
AcDbCircle
 10
1.83195943
 20
-5.58485079
 30
0.0
 40
3.3027500000134E-05
100
AcDbArc
 50
177.82105902
 51
8.12421699
  0
ARC
  5
484
100
AcDbEntity
  8
detail
 62
    16
  6
CONTINUOUS
370
     5
100
AcDbCircle
 10
1.83195943
 20
-5.58485079
 30
0.0
 40
6.0663000024218E-06
100
AcDbArc
 50
179.11150115
 51
8.29782692
  0
ARC
  5
485
100
AcDbEntity
  8
detail
 62
    16
  6
CONTINUOUS
370
     5
100
AcDbCircle
 10
1.83173376
 20
-5.58516741
 30
0.0
 40
6.0662800001413E-05
100
AcDbArc
 50
182.17665403
 51
252.42508102
  0
ARC
  5
486
100
AcDbEntity
  8
detail
 62
    16
  6
CONTINUOUS
370
     5
100
AcDbCircle
 10
1.83173376
 20
-5.58516741
 30
0.0
 40
3.3701499989380E-05
100
AcDbArc
 50
182.17665401
 51
252.42508103
  0
ARC
  5
487
100
AcDbEntity
  8
detail
 62
    16
  6
CONTINUOUS
370
     5
100
AcDbCircle
 10
1.83158177
 20
-5.58524239
 30
0.0
 40
3.3701499986275E-05
100
AcDbArc
 50
301.66865801
 51
357.92068904
  0
ARC
  5
488
100
AcDbEntity
  8
detail
 62
    16
  6
CONTINUOUS
370
     5
100
AcDbCircle
 10
1.83155481
 20
-5.58536989
 30
0.0
 40
3.3701499948114E-05
100
AcDbArc
 50
121.66864697
 51
166.63290206
  0
ARC
  5
489
100
AcDbEntity
  8
detail
 62
    16
  6
CONTINUOUS
370
     5
100
AcDbCircle
 10
1.83158177
 20
-5.58524239
 30
0.0
 40
6.0662799985264E-05
100
AcDbArc
 50
301.668658
 51
357.92068902
  0
ARC
  5
48A
100
AcDbEntity
  8
detail
 62
    16
  6
CONTINUOUS
370
     5
100
AcDbCircle
 10
1.83155481
 20
-5.58536989
 30
0.0
 40
6.0662799887294E-05
100
AcDbArc
 50
121.66864696
 51
166.63290204
  0
ARC
  5
48B
100
AcDbEntity
  8
detail
 62
    16
  6
CONTINUOUS
370
     5
100
AcDbCircle
 10
1.83177327
 20
-5.58890777
 30
0.0
 40
4.0441799999523E-05
100
AcDbArc
 50
56.513085
 51
252.52613502
  0
ARC
  5
48C
100
AcDbEntity
  8
detail
 62
    16
  6
CONTINUOUS
370
     5
100
AcDbCircle
 10
1.83177574
 20
-5.58890692
 30
0.0
 40
1.3480599995820E-05
100
AcDbArc
 50
72.52611996
 51
252.52613505
  0
ARC
  5
48D
100
AcDbEntity
  8
detail
 62
    16
  6
CONTINUOUS
370
     5
100
AcDbCircle
 10
1.83189524
 20
-5.58879045
 30
0.0
 40
0.00014523
100
AcDbArc
 50
250.15309602
 51
4.535121
  0
ARC
  5
48E
100
AcDbEntity
  8
detail
 62
    16
  6
CONTINUOUS
370
     5
100
AcDbCircle
 10
1.83189524
 20
-5.58879045
 30
0.0
 40
0.0001738
100
AcDbArc
 50
247.88434502
 51
4.535121
  0
ARC
  5
48F
100
AcDbEntity
  8
detail
 62
    16
  6
CONTINUOUS
370
     5
100
AcDbCircle
 10
1.83189524
 20
-5.58879045
 30
0.0
 40
0.00020236
100
AcDbArc
 50
246.24700101
 51
4.535121
  0
CIRCLE
  5
490
100
AcDbEntity
  8
detail
 62
    16
  6
CONTINUOUS
370
     5
100
AcDbCircle
 10
1.84248081
 20
-5.57779105
 30
0.0
 40
0.0002
  0
CIRCLE
  5
491
100
AcDbEntity
  8
detail
 62
    16
  6
CONTINUOUS
370
     5
100
AcDbCircle
 10
1.84248081
 20
-5.57779105
 30
0.0
 40
0.00025
  0
CIRCLE
  5
492
100
AcDbEntity
  8
detail
 62
    16
  6
CONTINUOUS
370
     5
100
AcDbCircle
 10
1.84248081
 20
-5.57779105
 30
0.0
 40
0.0002
  0
CIRCLE
  5
493
100
AcDbEntity
  8
detail
 62
    16
  6
CONTINUOUS
370
     5
100
AcDbCircle
 10
1.84248081
 20
-5.57779105
 30
0.0
 40
0.00025
  0
CIRCLE
  5
494
100
AcDbEntity
  8
detail
 62
    16
  6
CONTINUOUS
370
     5
100
AcDbCircle
 10
1.84248081
 20
-5.57779105
 30
0.0
 40
0.0002
  0
CIRCLE
  5
495
100
AcDbEntity
  8
detail
 62
    16
  6
CONTINUOUS
370
     5
100
AcDbCircle
 10
1.84248081
 20
-5.57779105
 30
0.0
 40
0.00025
  0
CIRCLE
  5
496
100
AcDbEntity
  8
detail
 62
    16
  6
CONTINUOUS
370
     5
100
AcDbCircle
 10
1.84248081
 20
-5.57779105
 30
0.0
 40
0.0002
  0
CIRCLE
  5
497
100
AcDbEntity
  8
detail
 62
    16
  6
CONTINUOUS
370
     5
100
AcDbCircle
 10
1.84248081
 20
-5.57779105
 30
0.0
 40
0.00025
  0
CIRCLE
  5
498
100
AcDbEntity
  8
detail
 62
    16
  6
CENTER
370
     5
100
AcDbCircle
 10
1.83908933
 20
-5.57327602
 30
0.0
 40
0.00616522
  0
CIRCLE
  5
499
100
AcDbEntity
  8
detail
 62
    16
  6
CONTINUOUS
370
     5
100
AcDbCircle
 10
1.83906726
 20
-5.57601945
 30
0.0
 40
0.00019596
  0
CIRCLE
  5
49A
100
AcDbEntity
  8
detail
 62
    16
  6
CONTINUOUS
370
     5
100
AcDbCircle
 10
1.83906726
 20
-5.57601945
 30
0.0
 40
0.00024495
  0
CIRCLE
  5
49B
100
AcDbEntity
  8
detail
 62
    16
  6
CONTINUOUS
370
     5
100
AcDbCircle
 10
1.83906726
 20
-5.57327602
 30
0.0
 40
0.00078384
  0
CIRCLE
  5
49C
100
AcDbEntity
  8
detail
 62
    16
  6
CONTINUOUS
370
     5
100
AcDbCircle
 10
1.83906726
 20
-5.57327602
 30
0.0
 40
0.00088182
  0
CIRCLE
  5
49D
100
AcDbEntity
  8
detail
 62
    16
  6
CONTINUOUS
370
     5
100
AcDbCircle
 10
1.83906726
 20
-5.57327602
 30
0.0
 40
0.00129333
  0
CIRCLE
  5
49E
100
AcDbEntity
  8
detail
 62
    16
  6
CONTINUOUS
370
     5
100
AcDbCircle
 10
1.83906726
 20
-5.57601945
 30
0.0
 40
0.00019596
  0
CIRCLE
  5
49F
100
AcDbEntity
  8
detail
 62
    16
  6
CONTINUOUS
370
     5
100
AcDbCircle
 10
1.83906726
 20
-5.57601945
 30
0.0
 40
0.00024495
  0
CIRCLE
  5
4A0
100
AcDbEntity
  8
detail
 62
    16
  6
CONTINUOUS
370
     5
100
AcDbCircle
 10
1.83906726
 20
-5.57327602
 30
0.0
 40
0.00078384
  0
CIRCLE
  5
4A1
100
AcDbEntity
  8
detail
 62
    16
  6
CONTINUOUS
370
     5
100
AcDbCircle
 10
1.83906726
 20
-5.57327602
 30
0.0
 40
0.00088182
  0
CIRCLE
  5
4A2
100
AcDbEntity
  8
detail
 62
    16
  6
CONTINUOUS
370
     5
100
AcDbCircle
 10
1.83906726
 20
-5.57327602
 30
0.0
 40
0.00129333
  0
CIRCLE
  5
4A3
100
AcDbEntity
  8
detail
 62
    16
  6
CONTINUOUS
370
     5
100
AcDbCircle
 10
1.83906726
 20
-5.57601945
 30
0.0
 40
0.00019596
  0
CIRCLE
  5
4A4
100
AcDbEntity
  8
detail
 62
    16
  6
CONTINUOUS
370
     5
100
AcDbCircle
 10
1.83906726
 20
-5.57601945
 30
0.0
 40
0.00024495
  0
CIRCLE
  5
4A5
100
AcDbEntity
  8
detail
 62
    16
  6
CONTINUOUS
370
     5
100
AcDbCircle
 10
1.83906726
 20
-5.57327602
 30
0.0
 40
0.00078384
  0
CIRCLE
  5
4A6
100
AcDbEntity
  8
detail
 62
    16
  6
CONTINUOUS
370
     5
100
AcDbCircle
 10
1.83906726
 20
-5.57327602
 30
0.0
 40
0.00088182
  0
CIRCLE
  5
4A7
100
AcDbEntity
  8
detail
 62
    16
  6
CONTINUOUS
370
     5
100
AcDbCircle
 10
1.83906726
 20
-5.57327602
 30
0.0
 40
0.00129333
  0
CIRCLE
  5
4A8
100
AcDbEntity
  8
detail
 62
    16
  6
CONTINUOUS
370
     5
100
AcDbCircle
 10
1.83906726
 20
-5.57601945
 30
0.0
 40
0.00019596
  0
CIRCLE
  5
4A9
100
AcDbEntity
  8
detail
 62
    16
  6
CONTINUOUS
370
     5
100
AcDbCircle
 10
1.83906726
 20
-5.57601945
 30
0.0
 40
0.00024495
  0
CIRCLE
  5
4AA
100
AcDbEntity
  8
detail
 62
    16
  6
CONTINUOUS
370
     5
100
AcDbCircle
 10
1.83906726
 20
-5.57327602
 30
0.0
 40
0.00078384
  0
CIRCLE
  5
4AB
100
AcDbEntity
  8
detail
 62
    16
  6
CONTINUOUS
370
     5
100
AcDbCircle
 10
1.83906726
 20
-5.57327602
 30
0.0
 40
0.00088182
  0
CIRCLE
  5
4AC
100
AcDbEntity
  8
detail
 62
    16
  6
CONTINUOUS
370
     5
100
AcDbCircle
 10
1.83906726
 20
-5.57327602
 30
0.0
 40
0.00129333
  0
CIRCLE
  5
4AD
100
AcDbEntity
  8
detail
 62
    16
  6
CONTINUOUS
370
     5
100
AcDbCircle
 10
1.83456529
 20
-5.57778289
 30
0.0
 40
0.0002
  0
CIRCLE
  5
4AE
100
AcDbEntity
  8
detail
 62
    16
  6
CONTINUOUS
370
     5
100
AcDbCircle
 10
1.83456529
 20
-5.57778289
 30
0.0
 40
0.00025
  0
CIRCLE
  5
4AF
100
AcDbEntity
  8
detail
 62
    16
  6
CONTINUOUS
370
     5
100
AcDbCircle
 10
1.83456529
 20
-5.57778289
 30
0.0
 40
0.0002
  0
CIRCLE
  5
4B0
100
AcDbEntity
  8
detail
 62
    16
  6
CONTINUOUS
370
     5
100
AcDbCircle
 10
1.83456529
 20
-5.5824349
 30
0.0
 40
0.00069667
  0
CIRCLE
  5
4B1
100
AcDbEntity
  8
detail
 62
    16
  6
CONTINUOUS
370
     5
100
AcDbCircle
 10
1.83948081
 20
-5.58077794
 30
0.0
 40
0.00025
  0
CIRCLE
  5
4B2
100
AcDbEntity
  8
detail
 62
    16
  6
CONTINUOUS
370
     5
100
AcDbCircle
 10
1.83948081
 20
-5.57979105
 30
0.0
 40
0.00025
  0
CIRCLE
  5
4B3
100
AcDbEntity
  8
detail
 62
    16
  6
CONTINUOUS
370
     5
100
AcDbCircle
 10
1.83948081
 20
-5.57879105
 30
0.0
 40
0.00025
  0
CIRCLE
  5
4B4
100
AcDbEntity
  8
detail
 62
    16
  6
CONTINUOUS
370
     5
100
AcDbCircle
 10
1.84248081
 20
-5.58077794
 30
0.0
 40
0.00025
  0
CIRCLE
  5
4B5
100
AcDbEntity
  8
detail
 62
    16
  6
CONTINUOUS
370
     5
100
AcDbCircle
 10
1.84248081
 20
-5.57977794
 30
0.0
 40
0.00025
  0
CIRCLE
  5
4B6
100
AcDbEntity
  8
detail
 62
    16
  6
CONTINUOUS
370
     5
100
AcDbCircle
 10
1.84248081
 20
-5.57877794
 30
0.0
 40
0.00025
  0
CIRCLE
  5
4B7
100
AcDbEntity
  8
detail
 62
    16
  6
CONTINUOUS
370
     5
100
AcDbCircle
 10
1.83948081
 20
-5.57779105
 30
0.0
 40
0.0002
  0
CIRCLE
  5
4B8
100
AcDbEntity
  8
detail
 62
    16
  6
CONTINUOUS
370
     5
100
AcDbCircle
 10
1.83948081
 20
-5.57779105
 30
0.0
 40
0.00025
  0
CIRCLE
  5
4B9
100
AcDbEntity
  8
detail
 62
    16
  6
CONTINUOUS
370
     5
100
AcDbCircle
 10
1.83948081
 20
-5.57779105
 30
0.0
 40
0.0002
  0
CIRCLE
  5
4BA
100
AcDbEntity
  8
detail
 62
    16
  6
CONTINUOUS
370
     5
100
AcDbCircle
 10
1.83948081
 20
-5.57779105
 30
0.0
 40
0.00025
  0
CIRCLE
  5
4BB
100
AcDbEntity
  8
detail
 62
    16
  6
CONTINUOUS
370
     5
100
AcDbCircle
 10
1.83948081
 20
-5.57779105
 30
0.0
 40
0.0002
  0
CIRCLE
  5
4BC
100
AcDbEntity
  8
detail
 62
    16
  6
CONTINUOUS
370
     5
100
AcDbCircle
 10
1.83948081
 20
-5.57779105
 30
0.0
 40
0.00025
  0
CIRCLE
  5
4BD
100
AcDbEntity
  8
detail
 62
    16
  6
CONTINUOUS
370
     5
100
AcDbCircle
 10
1.83948081
 20
-5.57779105
 30
0.0
 40
0.0002
  0
CIRCLE
  5
4BE
100
AcDbEntity
  8
detail
 62
    16
  6
CONTINUOUS
370
     5
100
AcDbCircle
 10
1.83948081
 20
-5.57779105
 30
0.0
 40
0.00025
  0
HATCH
  5
4BF
100
AcDbEntity
  8
detail
 62
    16
100
AcDbHatch
 10
0.0
 20
0.0
 30
0.0
210
0.0
220
0.0
230
1.0
  2
DOPPELLINIE_1_4
 70
     0
 71
     0
 91
        1
 92
        7
 72
     0
 73
     1
 93
        8
 10
1.83854458
 20
-5.58386467
 10
1.8379567
 20
-5.58445254
 10
1.83854458
 20
-5.58445254
 10
1.83854458
 20
-5.5856283
 10
1.83864458
 20
-5.5856283
 10
1.83864458
 20
-5.58435254
 10
1.83818366
 20
-5.58435254
 10
1.83818132
 20
-5.58435489
 97
        0
 75
     0
 76
     2
 52
0.0
 41
1.0
 77
     0
 78
     2
 53
45.0
 43
0.0
 44
0.0
 45
-0.0001149
 46
0.0001149
 79
     2
 49
0.0025
 49
-2.4999999368447E-08
 53
45.0
 43
0.0
 44
3.2499998807907E-05
 45
-0.0001149
 46
0.0001149
 79
     2
 49
0.0025
 49
-2.4999999368447E-08
 47
0.775229
 98
        1
 10
0.0
 20
0.0
  0
HATCH
  5
4C0
100
AcDbEntity
  8
detail
 62
    16
100
AcDbHatch
 10
0.0
 20
0.0
 30
0.0
210
0.0
220
0.0
230
1.0
  2
DOPPELLINIE_1_4
 70
     0
 71
     0
 91
        1
 92
        7
 72
     0
 73
     1
 93
        8
 10
1.83611629
 20
-5.57449835
 10
1.83625517
 20
-5.57444082
 10
1.83790245
 20
-5.57608811
 10
1.84023207
 20
-5.57608811
 10
1.84187935
 20
-5.57444082
 10
1.84201823
 20
-5.57449835
 10
1.84028959
 20
-5.57622699
 10
1.83784493
 20
-5.57622699
 97
        0
 75
     0
 76
     2
 52
0.0
 41
1.0
 77
     0
 78
     2
 53
45.0
 43
0.0
 44
0.0
 45
-0.0001149
 46
0.0001149
 79
     2
 49
0.0025
 49
-2.4999999368447E-08
 53
45.0
 43
0.0
 44
3.2499998807907E-05
 45
-0.0001149
 46
0.0001149
 79
     2
 49
0.0025
 49
-2.4999999368447E-08
 47
0.775229
 98
        1
 10
0.0
 20
0.0
  0
HATCH
  5
4C1
100
AcDbEntity
  8
detail
 62
    16
100
AcDbHatch
 10
0.0
 20
0.0
 30
0.0
210
0.0
220
0.0
230
1.0
  2
DOPPELLINIE_1_4
 70
     0
 71
     0
 91
        1
 92
        7
 72
     0
 73
     1
 93
       12
 10
1.83611629
 20
-5.57449835
 10
1.83625517
 20
-5.57444082
 10
1.83625517
 20
-5.57211121
 10
1.83790245
 20
-5.57046393
 10
1.84023207
 20
-5.57046393
 10
1.84187935
 20
-5.57211121
 10
1.84187935
 20
-5.57444082
 10
1.84201823
 20
-5.57449835
 10
1.84201823
 20
-5.57205369
 10
1.84028959
 20
-5.57032505
 10
1.83784493
 20
-5.57032505
 10
1.83611629
 20
-5.57205369
 97
        0
 75
     0
 76
     2
 52
0.0
 41
1.0
 77
     0
 78
     2
 53
45.0
 43
0.0
 44
0.0
 45
-0.0001149
 46
0.0001149
 79
     2
 49
0.0025
 49
-2.4999999368447E-08
 53
45.0
 43
0.0
 44
3.2499998807907E-05
 45
-0.0001149
 46
0.0001149
 79
     2
 49
0.0025
 49
-2.4999999368447E-08
 47
0.775229
 98
        1
 10
0.0
 20
0.0
  0
HATCH
  5
4C2
100
AcDbEntity
  8
detail
 62
    16
100
AcDbHatch
 10
0.0
 20
0.0
 30
0.0
210
0.0
220
0.0
230
1.0
  2
DOPPELLINIE_1_4
 70
     0
 71
     0
 91
        1
 92
        7
 72
     0
 73
     1
 93
        6
 10
1.83648081
 20
-5.5857783
 10
1.83648081
 20
-5.58573166
 10
1.83654048
 20
-5.5856283
 10
1.84542114
 20
-5.5856283
 10
1.84548081
 20
-5.58573166
 10
1.84548081
 20
-5.5857783
 97
        0
 75
     0
 76
     2
 52
0.0
 41
1.0
 77
     0
 78
     2
 53
45.0
 43
0.0
 44
0.0
 45
-0.0001149
 46
0.0001149
 79
     2
 49
0.0025
 49
-2.4999999368447E-08
 53
45.0
 43
0.0
 44
3.2499998807907E-05
 45
-0.0001149
 46
0.0001149
 79
     2
 49
0.0025
 49
-2.4999999368447E-08
 47
0.775229
 98
        1
 10
0.0
 20
0.0
  0
HATCH
  5
4C3
100
AcDbEntity
  8
detail
 62
    16
100
AcDbHatch
 10
0.0
 20
0.0
 30
0.0
210
0.0
220
0.0
230
1.0
  2
DOPPELLINIE_1_4
 70
     0
 71
     0
 91
        1
 92
        7
 72
     0
 73
     1
 93
        8
 10
1.84380729
 20
-5.58435489
 10
1.84380495
 20
-5.58435254
 10
1.84334403
 20
-5.58435254
 10
1.84334403
 20
-5.5856283
 10
1.843444
 20
-5.5856283
 10
1.843444
 20
-5.58445254
 10
1.84403188
 20
-5.58445254
 10
1.843444
 20
-5.58386467
 97
        0
 75
     0
 76
     2
 52
0.0
 41
1.0
 77
     0
 78
     2
 53
45.0
 43
0.0
 44
0.0
 45
-0.0001149
 46
0.0001149
 79
     2
 49
0.0025
 49
-2.4999999368447E-08
 53
45.0
 43
0.0
 44
3.2499998807907E-05
 45
-0.0001149
 46
0.0001149
 79
     2
 49
0.0025
 49
-2.4999999368447E-08
 47
0.775229
 98
        1
 10
0.0
 20
0.0
  0
HATCH
  5
4C4
100
AcDbEntity
  8
detail
 62
    16
100
AcDbHatch
 10
0.0
 20
0.0
 30
0.0
210
0.0
220
0.0
230
1.0
  2
DOPPELLINIE_1_4
 70
     0
 71
     0
 91
        1
 92
        7
 72
     0
 73
     1
 93
        4
 10
1.83857736
 20
-5.57278612
 10
1.83955716
 20
-5.57278612
 10
1.83955716
 20
-5.57376592
 10
1.83857736
 20
-5.57376592
 97
        0
 75
     0
 76
     2
 52
0.0
 41
1.0
 77
     0
 78
     2
 53
45.0
 43
0.0
 44
0.0
 45
-0.0001149
 46
0.0001149
 79
     2
 49
0.0025
 49
-2.4999999368447E-08
 53
45.0
 43
0.0
 44
3.2499998807907E-05
 45
-0.0001149
 46
0.0001149
 79
     2
 49
0.0025
 49
-2.4999999368447E-08
 47
0.775229
 98
        1
 10
0.0
 20
0.0
  0
LWPOLYLINE
  5
4C5
100
AcDbEntity
  8
detail
 62
    16
  6
CONTINUOUS
370
     5
100
AcDbPolyline
 90
       17
 70
     0
 43
0.0
 10
1.8322939
 20
-5.56883822
 10
1.83229191
 20
-5.56884197
 10
1.83228606
 20
-5.56885237
 10
1.83227654
 20
-5.56886813
 10
1.83226353
 20
-5.56888796
 10
1.83224722
 20
-5.56891059
 10
1.8322278
 20
-5.56893472
 10
1.83220545
 20
-5.56895907
 10
1.83218036
 20
-5.56898236
 10
1.83216674
 20
-5.56899335
 10
1.83215315
 20
-5.56900344
 10
1.83214012
 20
-5.56901246
 10
1.83212822
 20
-5.56902023
 10
1.83211801
 20
-5.56902658
 10
1.83211002
 20
-5.56903134
 10
1.83210483
 20
-5.56903432
 10
1.83210297
 20
-5.56903535
  0
LWPOLYLINE
  5
4C6
100
AcDbEntity
  8
detail
 62
    16
  6
CONTINUOUS
370
     5
100
AcDbPolyline
 90
       17
 70
     0
 43
0.0
 10
1.83236664
 20
-5.56886136
 10
1.83236445
 20
-5.56886478
 10
1.83235813
 20
-5.56887436
 10
1.83234808
 20
-5.56888903
 10
1.83233469
 20
-5.56890774
 10
1.83231833
 20
-5.56892944
 10
1.83229939
 20
-5.56895308
 10
1.83227827
 20
-5.5689776
 10
1.83225534
 20
-5.56900196
 10
1.83223208
 20
-5.56902431
 10
1.83220867
 20
-5.56904496
 10
1.83218611
 20
-5.56906352
 10
1.83216541
 20
-5.56907959
 10
1.83214757
 20
-5.56909277
 10
1.83213358
 20
-5.56910268
 10
1.83212446
 20
-5.56910891
 10
1.83212119
 20
-5.56911108
  0
LWPOLYLINE
  5
4C7
100
AcDbEntity
  8
detail
 62
    16
  6
CONTINUOUS
370
     5
100
AcDbPolyline
 90
       70
 70
     0
 43
0.0
 10
1.8332997
 20
-5.56795397
 10
1.83333402
 20
-5.56794246
 10
1.83343128
 20
-5.56791142
 10
1.83358293
 20
-5.56786606
 10
1.83367647
 20
-5.56783965
 10
1.83378041
 20
-5.56781162
 10
1.83389366
 20
-5.56778263
 10
1.83401516
 20
-5.56775333
 10
1.83414384
 20
-5.56772437
 10
1.83427864
 20
-5.5676964
 10
1.83441847
 20
-5.56767009
 10
1.83456228
 20
-5.56764608
 10
1.83470899
 20
-5.56762502
 10
1.83478309
 20
-5.56761581
 10
1.83485753
 20
-5.56760758
 10
1.8349777
 20
-5.56759667
 10
1.83509794
 20
-5.5675888
 10
1.8352182
 20
-5.56758394
 10
1.83533844
 20
-5.56758207
 10
1.8354586
 20
-5.56758318
 10
1.83557864
 20
-5.56758725
 10
1.8356985
 20
-5.56759426
 10
1.83581814
 20
-5.5676042
 10
1.83593751
 20
-5.56761703
 10
1.83605656
 20
-5.56763276
 10
1.83617524
 20
-5.56765136
 10
1.8362935
 20
-5.56767281
 10
1.83641129
 20
-5.56769709
 10
1.83652857
 20
-5.56772419
 10
1.83664527
 20
-5.56775408
 10
1.83676137
 20
-5.56778676
 10
1.83685918
 20
-5.56781664
 10
1.83695594
 20
-5.56784835
 10
1.83705164
 20
-5.56788182
 10
1.83714626
 20
-5.56791698
 10
1.83723979
 20
-5.56795376
 10
1.8373322
 20
-5.56799207
 10
1.83742349
 20
-5.56803186
 10
1.83751363
 20
-5.56807304
 10
1.83760262
 20
-5.56811553
 10
1.83769043
 20
-5.56815927
 10
1.83777705
 20
-5.56820419
 10
1.83786247
 20
-5.5682502
 10
1.83794667
 20
-5.56829724
 10
1.83802962
 20
-5.56834522
 10
1.83811133
 20
-5.56839409
 10
1.83819176
 20
-5.56844375
 10
1.83827092
 20
-5.56849415
 10
1.83834877
 20
-5.5685452
 10
1.8384253
 20
-5.56859683
 10
1.83850051
 20
-5.56864897
 10
1.83857436
 20
-5.56870154
 10
1.83864686
 20
-5.56875448
 10
1.83871797
 20
-5.5688077
 10
1.83878769
 20
-5.56886113
 10
1.83892288
 20
-5.56896833
 10
1.83905231
 20
-5.5690755
 10
1.83917584
 20
-5.56918204
 10
1.83929335
 20
-5.56928736
 10
1.83940472
 20
-5.56939087
 10
1.83950981
 20
-5.56949199
 10
1.83960851
 20
-5.56959011
 10
1.83970068
 20
-5.56968466
 10
1.8397862
 20
-5.56977504
 10
1.83986495
 20
-5.56986065
 10
1.8399368
 20
-5.56994092
 10
1.84000161
 20
-5.57001524
 10
1.84010966
 20
-5.5701437
 10
1.84018809
 20
-5.5702413
 10
1.84025204
 20
-5.57032505
  0
LWPOLYLINE
  5
4C8
100
AcDbEntity
  8
detail
 62
    16
  6
CONTINUOUS
370
     5
100
AcDbPolyline
 90
       86
 70
     0
 43
0.0
 10
1.83324109
 20
-5.56790377
 10
1.83327898
 20
-5.56788904
 10
1.83338641
 20
-5.56784962
 10
1.83346329
 20
-5.56782289
 10
1.83355407
 20
-5.56779267
 10
1.83365757
 20
-5.56775985
 10
1.83377264
 20
-5.56772534
 10
1.8338981
 20
-5.56769003
 10
1.83403279
 20
-5.56765482
 10
1.83417555
 20
-5.56762059
 10
1.8343252
 20
-5.56758824
 10
1.83440225
 20
-5.56757305
 10
1.83448059
 20
-5.56755867
 10
1.83456007
 20
-5.56754521
 10
1.83464055
 20
-5.56753278
 10
1.83472188
 20
-5.56752149
 10
1.83480392
 20
-5.56751145
 10
1.83488651
 20
-5.56750278
 10
1.83496952
 20
-5.56749559
 10
1.83504334
 20
-5.56749046
 10
1.83511716
 20
-5.56748647
 10
1.83519098
 20
-5.56748361
 10
1.83526478
 20
-5.56748187
 10
1.83533856
 20
-5.56748126
 10
1.83541229
 20
-5.56748177
 10
1.83548597
 20
-5.5674834
 10
1.83555959
 20
-5.56748614
 10
1.83563312
 20
-5.56748998
 10
1.83570658
 20
-5.56749494
 10
1.83577993
 20
-5.56750099
 10
1.83585317
 20
-5.56750814
 10
1.83592629
 20
-5.56751639
 10
1.83599927
 20
-5.56752573
 10
1.83607211
 20
-5.56753616
 10
1.83614478
 20
-5.56754767
 10
1.83621729
 20
-5.56756026
 10
1.83628962
 20
-5.56757393
 10
1.83636175
 20
-5.56758867
 10
1.83643368
 20
-5.56760448
 10
1.83650539
 20
-5.56762136
 10
1.83657687
 20
-5.5676393
 10
1.83664811
 20
-5.5676583
 10
1.8367191
 20
-5.56767836
 10
1.83678983
 20
-5.56769946
 10
1.83686028
 20
-5.56772162
 10
1.83693044
 20
-5.56774482
 10
1.8370003
 20
-5.56776906
 10
1.83706985
 20
-5.56779433
 10
1.83713908
 20
-5.56782064
 10
1.83720798
 20
-5.56784799
 10
1.83727652
 20
-5.56787635
 10
1.83736551
 20
-5.56791483
 10
1.83745356
 20
-5.56795464
 10
1.83754066
 20
-5.56799573
 10
1.83762679
 20
-5.56803804
 10
1.83771194
 20
-5.5680815
 10
1.83779609
 20
-5.56812605
 10
1.83787923
 20
-5.56817163
 10
1.83796135
 20
-5.56821817
 10
1.83804243
 20
-5.56826562
 10
1.83812245
 20
-5.56831391
 10
1.8382014
 20
-5.56836298
 10
1.83827926
 20
-5.56841277
 10
1.83835602
 20
-5.56846321
 10
1.83843167
 20
-5.56851424
 10
1.83850619
 20
-5.5685658
 10
1.83857956
 20
-5.56861784
 10
1.83872282
 20
-5.56872306
 10
1.83886131
 20
-5.5688294
 10
1.83899493
 20
-5.56893637
 10
1.83912355
 20
-5.56904347
 10
1.83924706
 20
-5.5691502
 10
1.83936533
 20
-5.56925607
 10
1.83947825
 20
-5.56936056
 10
1.8395857
 20
-5.5694632
 10
1.83968756
 20
-5.56956347
 10
1.83978371
 20
-5.56966089
 10
1.83987403
 20
-5.56975494
 10
1.8399584
 20
-5.56984514
 10
1.84003671
 20
-5.56993099
 10
1.84010883
 20
-5.57001198
 10
1.84017465
 20
-5.57008763
 10
1.84023404
 20
-5.57015743
 10
1.84033308
 20
-5.57027748
 10
1.84040501
 20
-5.57036817
 10
1.84046369
 20
-5.5704455
  0
LWPOLYLINE
  5
4C9
100
AcDbEntity
  8
detail
 62
    16
  6
CONTINUOUS
370
     5
100
AcDbPolyline
 90
       17
 70
     0
 43
0.0
 10
1.83178213
 20
-5.56873417
 10
1.8317803
 20
-5.56873649
 10
1.83177549
 20
-5.5687426
 10
1.83176868
 20
-5.56875126
 10
1.83176087
 20
-5.56876117
 10
1.83175307
 20
-5.56877109
 10
1.83174626
 20
-5.56877974
 10
1.83174145
 20
-5.56878586
 10
1.83173962
 20
-5.56878818
 10
1.83173858
 20
-5.5687905
 10
1.83173582
 20
-5.56879661
 10
1.83173192
 20
-5.56880526
 10
1.83172745
 20
-5.56881517
 10
1.83172298
 20
-5.56882508
 10
1.83171908
 20
-5.56883373
 10
1.83171633
 20
-5.56883984
 10
1.83171528
 20
-5.56884216
  0
LWPOLYLINE
  5
4CA
100
AcDbEntity
  8
detail
 62
    16
  6
CONTINUOUS
370
     5
100
AcDbPolyline
 90
       19
 70
     0
 43
0.0
 10
1.83178213
 20
-5.56873417
 10
1.83178991
 20
-5.56872492
 10
1.83181233
 20
-5.56869932
 10
1.83184795
 20
-5.56866051
 10
1.83189537
 20
-5.56861167
 10
1.83195315
 20
-5.56855597
 10
1.8320199
 20
-5.56849657
 10
1.83205619
 20
-5.56846648
 10
1.83209418
 20
-5.56843666
 10
1.83213371
 20
-5.56840749
 10
1.83217459
 20
-5.56837938
 10
1.83218644
 20
-5.56837163
 10
1.83219839
 20
-5.568364
 10
1.83221043
 20
-5.56835649
 10
1.83222255
 20
-5.5683491
 10
1.83223476
 20
-5.56834185
 10
1.83224705
 20
-5.56833472
 10
1.83225941
 20
-5.56832772
 10
1.83227184
 20
-5.56832086
  0
LWPOLYLINE
  5
4CB
100
AcDbEntity
  8
detail
 62
    16
  6
CONTINUOUS
370
     5
100
AcDbPolyline
 90
       17
 70
     0
 43
0.0
 10
1.83220168
 20
-5.56846094
 10
1.83220338
 20
-5.56845976
 10
1.83220821
 20
-5.56845648
 10
1.83221575
 20
-5.56845145
 10
1.8322256
 20
-5.56844503
 10
1.83223733
 20
-5.56843758
 10
1.83225054
 20
-5.56842945
 10
1.83226481
 20
-5.56842101
 10
1.83227973
 20
-5.56841261
 10
1.83228789
 20
-5.56840822
 10
1.83229584
 20
-5.56840406
 10
1.83230331
 20
-5.56840024
 10
1.83231003
 20
-5.56839686
 10
1.83231573
 20
-5.56839405
 10
1.83232013
 20
-5.5683919
 10
1.83232298
 20
-5.56839054
 10
1.83232398
 20
-5.56839006
  0
LWPOLYLINE
  5
4CC
100
AcDbEntity
  8
detail
 62
    16
  6
CONTINUOUS
370
     5
100
AcDbPolyline
 90
       17
 70
     0
 43
0.0
 10
1.83294117
 20
-5.56806
 10
1.83293453
 20
-5.56806269
 10
1.83291702
 20
-5.5680698
 10
1.83289227
 20
-5.56807985
 10
1.83286389
 20
-5.56809136
 10
1.83283552
 20
-5.56810288
 10
1.83281076
 20
-5.56811293
 10
1.83279325
 20
-5.56812004
 10
1.83278661
 20
-5.56812273
 10
1.83277808
 20
-5.56812349
 10
1.83275558
 20
-5.56812549
 10
1.83272377
 20
-5.56812832
 10
1.83268731
 20
-5.56813156
 10
1.83265084
 20
-5.5681348
 10
1.83261904
 20
-5.56813763
 10
1.83259654
 20
-5.56813962
 10
1.832588
 20
-5.56814038
  0
LWPOLYLINE
  5
4CD
100
AcDbEntity
  8
detail
 62
    16
  6
CONTINUOUS
370
     5
100
AcDbPolyline
 90
       17
 70
     0
 43
0.0
 10
1.832926
 20
-5.56817466
 10
1.83291926
 20
-5.56817708
 10
1.83290148
 20
-5.56818348
 10
1.83287634
 20
-5.56819253
 10
1.83284753
 20
-5.5682029
 10
1.83281871
 20
-5.56821327
 10
1.83279357
 20
-5.56822231
 10
1.8327758
 20
-5.56822871
 10
1.83276905
 20
-5.56823114
 10
1.83276049
 20
-5.56823155
 10
1.83273793
 20
-5.56823265
 10
1.83270604
 20
-5.5682342
 10
1.83266947
 20
-5.56823597
 10
1.83263291
 20
-5.56823775
 10
1.83260101
 20
-5.5682393
 10
1.83257845
 20
-5.56824039
 10
1.83256989
 20
-5.56824081
  0
LWPOLYLINE
  5
4CE
100
AcDbEntity
  8
detail
 62
    16
  6
CONTINUOUS
370
     5
100
AcDbPolyline
 90
       17
 70
     0
 43
0.0
 10
1.83294117
 20
-5.56806
 10
1.83294815
 20
-5.5680566
 10
1.83296654
 20
-5.56804763
 10
1.83299255
 20
-5.56803496
 10
1.83302237
 20
-5.56802043
 10
1.83305218
 20
-5.5680059
 10
1.83307819
 20
-5.56799323
 10
1.83309659
 20
-5.56798427
 10
1.83310357
 20
-5.56798087
 10
1.83310948
 20
-5.56797755
 10
1.83312506
 20
-5.56796882
 10
1.83314708
 20
-5.56795647
 10
1.83317233
 20
-5.56794232
 10
1.83319758
 20
-5.56792816
 10
1.83321961
 20
-5.56791582
 10
1.83323518
 20
-5.56790708
 10
1.83324109
 20
-5.56790377
  0
LWPOLYLINE
  5
4CF
100
AcDbEntity
  8
detail
 62
    16
  6
CONTINUOUS
370
     5
100
AcDbPolyline
 90
       25
 70
     0
 43
0.0
 10
1.8332997
 20
-5.56795397
 10
1.83329193
 20
-5.56795914
 10
1.83327146
 20
-5.56797275
 10
1.83324252
 20
-5.56799199
 10
1.83320935
 20
-5.56801405
 10
1.83317617
 20
-5.56803611
 10
1.83314723
 20
-5.56805536
 10
1.83312676
 20
-5.56806897
 10
1.833119
 20
-5.56807413
 10
1.83311559
 20
-5.56807593
 10
1.83310661
 20
-5.56808067
 10
1.8330939
 20
-5.56808738
 10
1.83307934
 20
-5.56809507
 10
1.83306478
 20
-5.56810275
 10
1.83305208
 20
-5.56810946
 10
1.8330431
 20
-5.5681142
 10
1.83303969
 20
-5.568116
 10
1.83303919
 20
-5.56811752
 10
1.83303786
 20
-5.56812153
 10
1.83303599
 20
-5.56812721
 10
1.83303384
 20
-5.56813371
 10
1.83303169
 20
-5.56814021
 10
1.83302982
 20
-5.56814588
 10
1.83302849
 20
-5.56814989
 10
1.83302799
 20
-5.56815141
  0
LINE
  5
4D0
100
AcDbEntity
  8
detail
 62
    16
  6
CONTINUOUS
370
     5
100
AcDbLine
 10
1.83910395
 20
-5.56937619
 30
0.0
 11
1.83972167
 21
-5.56872165
 31
0.0
  0
LINE
  5
4D1
100
AcDbEntity
  8
detail
 62
    16
  6
CONTINUOUS
370
     5
100
AcDbLine
 10
1.86941529
 20
-5.51723166
 30
0.25
 11
1.94329878
 21
-5.51723166
 31
0.25
  0
LWPOLYLINE
  5
4D2
100
AcDbEntity
  8
detail
 62
    16
  6
CONTINUOUS
370
     5
100
AcDbPolyline
 90
        4
 70
     0
 43
0.0
 38
0.25
 10
1.94329878
 20
-5.51823166
 10
1.86991529
 20
-5.51823166
 10
1.86991529
 20
-5.52623166
 10
1.94329878
 20
-5.52623166
  0
LINE
  5
4D3
100
AcDbEntity
  8
detail
 62
    16
  6
CONTINUOUS
370
     5
100
AcDbLine
 10
1.86941529
 20
-5.67445734
 30
0.0
 11
1.86941529
 21
-5.55423166
 31
0.0
  0
LINE
  5
4D4
100
AcDbEntity
  8
detail
 62
   250
  6
CADWORK_LK1
370
     5
100
AcDbLine
 10
1.83691529
 20
-5.67445734
 30
0.0
 11
1.83691529
 21
-5.55423166
 31
0.0
  0
LINE
  5
4D5
100
AcDbEntity
  8
detail
 62
   250
  6
CADWORK_LK1
370
     5
100
AcDbLine
 10
1.82441529
 20
-5.67445734
 30
0.0
 11
1.82441529
 21
-5.58573166
 31
0.0
  0
LINE
  5
4D6
100
AcDbEntity
  8
detail
 62
   250
  6
CADWORK_LK1
370
     5
100
AcDbLine
 10
1.86791529
 20
-5.67445734
 30
0.0
 11
1.86791529
 21
-5.57660516
 31
0.0
  0
LINE
  5
4D7
100
AcDbEntity
  8
detail
 62
   250
  6
CADWORK_LK1
370
     5
100
AcDbLine
 10
1.85291529
 20
-5.67445734
 30
0.0
 11
1.85291529
 21
-5.55423166
 31
0.0
  0
3DFACE
  5
4D8
102
{ACAD_REACTORS
330
4D9
102
}
100
AcDbEntity
  8
detail
 62
    16
  6
CONTINUOUS
370
     5
100
AcDbFace
 70
     0
 10
1.85781529
 20
-5.58973166
 30
0.25
 11
1.85781529
 21
-5.67445734
 31
0.25
 12
1.85831529
 22
-5.67445734
 32
0.25
 13
1.85831529
 23
-5.58973166
 33
0.25
  0
HATCH
  5
4D9
100
AcDbEntity
  8
detail
 62
    16
  6
CONTINUOUS
100
AcDbHatch
 10
0.0
 20
0.0
 30
0.0
210
0.0
220
0.0
230
1.0
  2
SOLID
 70
     1
 71
     1
 91
        1
 92
        7
 72
     0
 73
     1
 93
        4
 10
1.85781529
 20
-5.58973166
 10
1.85781529
 20
-5.67445734
 10
1.85831529
 20
-5.67445734
 10
1.85831529
 20
-5.58973166
 97
        1
330
4D8
 75
     0
 76
     2
 47
0.775229
 98
        1
 10
0.0
 20
0.0
  0
3DFACE
  5
4DA
102
{ACAD_REACTORS
330
4DB
102
}
100
AcDbEntity
  8
detail
 62
    16
  6
CONTINUOUS
370
     5
100
AcDbFace
 70
     0
 10
1.85627022
 20
-5.58973166
 30
0.25
 11
1.85627022
 21
-5.67445734
 31
0.25
 12
1.85677022
 22
-5.67445734
 32
0.25
 13
1.85677022
 23
-5.58973166
 33
0.25
  0
HATCH
  5
4DB
100
AcDbEntity
  8
detail
 62
    16
  6
CONTINUOUS
100
AcDbHatch
 10
0.0
 20
0.0
 30
0.0
210
0.0
220
0.0
230
1.0
  2
SOLID
 70
     1
 71
     1
 91
        1
 92
        7
 72
     0
 73
     1
 93
        4
 10
1.85627022
 20
-5.58973166
 10
1.85627022
 20
-5.67445734
 10
1.85677022
 20
-5.67445734
 10
1.85677022
 20
-5.58973166
 97
        1
330
4DA
 75
     0
 76
     2
 47
0.775229
 98
        1
 10
0.0
 20
0.0
  0
LINE
  5
4DC
100
AcDbEntity
  8
detail
 62
    16
  6
CONTINUOUS
370
     5
100
AcDbLine
 10
1.86001529
 20
-5.59063166
 30
0.0
 11
1.86001529
 21
-5.67445734
 31
0.0
  0
LINE
  5
4DD
100
AcDbEntity
  8
detail
 62
    16
  6
CONTINUOUS
370
     5
100
AcDbLine
 10
1.85226529
 20
-5.59063166
 30
0.0
 11
1.85226529
 21
-5.67445734
 31
0.0
  0
3DFACE
  5
4DE
102
{ACAD_REACTORS
330
4DF
102
}
100
AcDbEntity
  8
detail
 62
    16
  6
CONTINUOUS
370
     5
100
AcDbFace
 70
     0
 10
1.85472514
 20
-5.58973166
 30
0.25
 11
1.85472514
 21
-5.67445734
 31
0.25
 12
1.85522514
 22
-5.67445734
 32
0.25
 13
1.85522514
 23
-5.58973166
 33
0.25
  0
HATCH
  5
4DF
100
AcDbEntity
  8
detail
 62
    16
  6
CONTINUOUS
100
AcDbHatch
 10
0.0
 20
0.0
 30
0.0
210
0.0
220
0.0
230
1.0
  2
SOLID
 70
     1
 71
     1
 91
        1
 92
        7
 72
     0
 73
     1
 93
        4
 10
1.85472514
 20
-5.58973166
 10
1.85472514
 20
-5.67445734
 10
1.85522514
 20
-5.67445734
 10
1.85522514
 20
-5.58973166
 97
        1
330
4DE
 75
     0
 76
     2
 47
0.775229
 98
        1
 10
0.0
 20
0.0
  0
LINE
  5
4E0
100
AcDbEntity
  8
detail
 62
    16
  6
CONTINUOUS
370
     5
100
AcDbLine
 10
1.83491529
 20
-5.58505993
 30
0.0
 11
1.83491529
 21
-5.67445734
 31
0.0
  0
LINE
  5
4E1
100
AcDbEntity
  8
detail
 62
    16
  6
CONTINUOUS
370
     5
100
AcDbLine
 10
1.83521529
 20
-5.58505993
 30
0.0
 11
1.83521529
 21
-5.67445734
 31
0.0
  0
LINE
  5
4E2
100
AcDbEntity
  8
detail
 62
    16
  6
CONTINUOUS
370
     5
100
AcDbLine
 10
1.83311529
 20
-5.58505993
 30
0.0
 11
1.83311529
 21
-5.67445734
 31
0.0
  0
LINE
  5
4E3
100
AcDbEntity
  8
detail
 62
    16
  6
CONTINUOUS
370
     5
100
AcDbLine
 10
1.83251529
 20
-5.5832967
 30
0.0
 11
1.83251529
 21
-5.67445734
 31
0.0
  0
LINE
  5
4E4
100
AcDbEntity
  8
detail
 62
    16
  6
CONTINUOUS
370
     5
100
AcDbLine
 10
1.83281529
 20
-5.58505993
 30
0.0
 11
1.83281529
 21
-5.67445734
 31
0.0
  0
LINE
  5
4E5
100
AcDbEntity
  8
detail
 62
    16
  6
CONTINUOUS
370
     5
100
AcDbLine
 10
1.83078324
 20
-5.58327602
 30
0.0
 11
1.83078324
 21
-5.67445734
 31
0.0
  0
LINE
  5
4E6
100
AcDbEntity
  8
detail
 62
    16
  6
CONTINUOUS
370
     5
100
AcDbLine
 10
1.83106766
 20
-5.58327602
 30
0.0
 11
1.83106766
 21
-5.67445734
 31
0.0
  0
LINE
  5
4E7
100
AcDbEntity
  8
detail
 62
     4
  6
CONTINUOUS
370
     5
100
AcDbLine
 10
1.81165283
 20
-5.62078326
 30
0.0
 11
1.83051988
 21
-5.62078326
 31
0.0
  0
LINE
  5
4E8
100
AcDbEntity
  8
detail
 62
     4
  6
CONTINUOUS
370
     5
100
AcDbLine
 10
1.87338625
 20
-5.62644874
 30
0.0
 11
1.83305356
 21
-5.62644874
 31
0.0
  0
LWPOLYLINE
  5
4E9
100
AcDbEntity
  8
detail
 62
     4
  6
CONTINUOUS
370
     5
100
AcDbPolyline
 90
        3
 70
     0
 43
0.0
 10
1.87340873
 20
-5.59609167
 10
1.8486277
 20
-5.59609167
 10
1.84019878
 20
-5.58628041
  0
LINE
  5
4EA
100
AcDbEntity
  8
detail
 62
     4
  6
CONTINUOUS
370
     5
100
AcDbLine
 10
1.88767046
 20
-5.56542726
 30
0.0
 11
1.86166529
 21
-5.56542726
 31
0.0
  0
LINE
  5
4EB
100
AcDbEntity
  8
detail
 62
    16
  6
CONTINUOUS
370
     5
100
AcDbLine
 10
1.86941529
 20
-5.51823166
 30
0.25
 11
1.86941529
 21
-5.49851047
 31
0.25
  0
LINE
  5
4EC
100
AcDbEntity
  8
detail
 62
    16
  6
CONTINUOUS
370
     5
100
AcDbLine
 10
1.82241529
 20
-5.67445734
 30
0.0
 11
1.82241529
 21
-5.49851047
 31
0.0
  0
LWPOLYLINE
  5
4ED
100
AcDbEntity
  8
detail
 62
     4
  6
CONTINUOUS
370
     5
100
AcDbPolyline
 90
        3
 70
     0
 43
0.0
 10
1.81633932
 20
-5.5923381
 10
1.82679118
 20
-5.5923381
 10
1.83740038
 20
-5.57522869
  0
LWPOLYLINE
  5
4EE
100
AcDbEntity
  8
detail
 62
     4
  6
CONTINUOUS
370
     5
100
AcDbPolyline
 90
        3
 70
     0
 43
0.0
 10
1.81131561
 20
-5.55157161
 10
1.81505805
 20
-5.55157161
 10
1.82689226
 20
-5.55784273
  0
LINE
  5
4EF
100
AcDbEntity
  8
detail
 62
     7
  6
CONTINUOUS
370
    -3
100
AcDbLine
 10
1.94329878
 20
-5.53023166
 30
0.25
 11
1.85291529
 21
-5.53023166
 31
0.25
  0
LWPOLYLINE
  5
4F0
100
AcDbEntity
  8
detail
 62
     7
  6
CONTINUOUS
370
    -3
100
AcDbPolyline
 90
        3
 70
     0
 43
0.0
 38
0.25
 10
1.85291529
 20
-5.53023166
 10
1.85291529
 20
-5.53023166
 10
1.85291529
 20
-5.55423166
  0
LINE
  5
4F1
100
AcDbEntity
  8
detail
 62
     7
  6
CONTINUOUS
370
    -3
100
AcDbLine
 10
1.85291529
 20
-5.55423166
 30
0.25
 11
1.94329878
 21
-5.55423166
 31
0.25
  0
LWPOLYLINE
  5
4F2
102
{ACAD_REACTORS
330
4F3
102
}
100
AcDbEntity
  8
detail
 62
     7
  6
CONTINUOUS
370
    -3
100
AcDbPolyline
 90
        4
 70
     1
 43
0.0
 10
1.82941529
 20
-5.55423166
 10
1.84741529
 20
-5.55423166
 10
1.84741529
 20
-5.56023166
 10
1.82941529
 20
-5.56023166
  0
HATCH
  5
4F3
100
AcDbEntity
  8
detail
 62
    16
  6
CONTINUOUS
100
AcDbHatch
 10
0.0
 20
0.0
 30
0.0
210
0.0
220
0.0
230
1.0
  2
SOLID
 70
     1
 71
     1
 91
        1
 92
        7
 72
     0
 73
     1
 93
        4
 10
1.82941529
 20
-5.55423166
 10
1.84741529
 20
-5.55423166
 10
1.84741529
 20
-5.56023166
 10
1.82941529
 20
-5.56023166
 97
        1
330
4F2
 75
     0
 76
     2
 47
0.775229
 98
        1
 10
0.0
 20
0.0
  0
LWPOLYLINE
  5
4F4
102
{ACAD_REACTORS
330
4F5
102
}
100
AcDbEntity
  8
detail
 62
     7
  6
CONTINUOUS
370
    20
100
AcDbPolyline
 90
        6
 70
     1
 43
0.0
 10
1.85641529
 20
-5.55423166
 10
1.84741529
 20
-5.55423166
 10
1.84741529
 20
-5.58660516
 10
1.85141529
 20
-5.58660516
 10
1.85141529
 20
-5.57660516
 10
1.85641529
 20
-5.57660516
  0
HATCH
  5
4F5
100
AcDbEntity
  8
detail
 62
   250
  6
CONTINUOUS
100
AcDbHatch
 10
0.0
 20
0.0
 30
0.0
210
0.0
220
0.0
230
1.0
  2
ANSI31
 70
     0
 71
     1
 91
        1
 92
        7
 72
     0
 73
     1
 93
        6
 10
1.85641529
 20
-5.55423166
 10
1.84741529
 20
-5.55423166
 10
1.84741529
 20
-5.58660516
 10
1.85141529
 20
-5.58660516
 10
1.85141529
 20
-5.57660516
 10
1.85641529
 20
-5.57660516
 97
        1
330
4F4
 75
     0
 76
     2
 52
135.0
 41
0.00078741
 77
     0
 78
     1
 53
0.0
 43
0.0
 44
0.00125
 45
0.0
 46
0.0025
 79
     0
 47
0.775229
 98
        1
 10
0.0
 20
0.0
  0
LWPOLYLINE
  5
4F6
102
{ACAD_REACTORS
330
4F7
102
}
100
AcDbEntity
  8
detail
 62
     7
  6
CONTINUOUS
370
     5
100
AcDbPolyline
 90
        4
 70
     1
 43
0.0
 10
1.86691529
 20
-5.52923166
 10
1.86691529
 20
-5.50543166
 10
1.82441529
 20
-5.50543166
 10
1.82441529
 20
-5.52923166
  0
HATCH
  5
4F7
100
AcDbEntity
  8
detail
 62
    16
  6
CONTINUOUS
100
AcDbHatch
 10
0.0
 20
0.0
 30
0.0
210
0.0
220
0.0
230
1.0
  2
ANSI31
 70
     0
 71
     1
 91
        1
 92
        7
 72
     0
 73
     1
 93
        4
 10
1.86691529
 20
-5.52923166
 10
1.86691529
 20
-5.50543166
 10
1.82441529
 20
-5.50543166
 10
1.82441529
 20
-5.52923166
 97
        1
330
4F6
 75
     0
 76
     2
 52
0.0
 41
0.00157481
 77
     0
 78
     1
 53
45.0
 43
0.0
 44
0.0
 45
0.00353553
 46
-0.00353553
 79
     0
 47
0.775229
 98
        1
 10
0.0
 20
0.0
  0
LWPOLYLINE
  5
4F8
102
{ACAD_REACTORS
330
4F9
102
}
100
AcDbEntity
  8
detail
 62
     7
  6
CONTINUOUS
370
     5
100
AcDbPolyline
 90
        4
 70
     1
 43
0.0
 10
1.83941529
 20
-5.55323166
 10
1.83941529
 20
-5.54223166
 10
1.82441529
 20
-5.54223166
 10
1.82441529
 20
-5.55323166
  0
HATCH
  5
4F9
100
AcDbEntity
  8
detail
 62
    16
  6
CONTINUOUS
100
AcDbHatch
 10
0.0
 20
0.0
 30
0.0
210
0.0
220
0.0
230
1.0
  2
ANSI31
 70
     0
 71
     1
 91
        1
 92
        7
 72
     0
 73
     1
 93
        4
 10
1.83941529
 20
-5.55323166
 10
1.83941529
 20
-5.54223166
 10
1.82441529
 20
-5.54223166
 10
1.82441529
 20
-5.55323166
 97
        1
330
4F8
 75
     0
 76
     2
 52
0.0
 41
0.00157481
 77
     0
 78
     1
 53
45.0
 43
0.0
 44
0.0
 45
0.00353553
 46
-0.00353553
 79
     0
 47
0.775229
 98
        1
 10
0.0
 20
0.0
  0
LWPOLYLINE
  5
4FA
102
{ACAD_REACTORS
330
4FB
102
}
100
AcDbEntity
  8
detail
 62
     7
  6
CONTINUOUS
370
     5
100
AcDbPolyline
 90
        4
 70
     1
 43
0.0
 10
1.83941529
 20
-5.54123166
 10
1.83941529
 20
-5.53023166
 10
1.82441529
 20
-5.53023166
 10
1.82441529
 20
-5.54123166
  0
HATCH
  5
4FB
100
AcDbEntity
  8
detail
 62
    16
  6
CONTINUOUS
100
AcDbHatch
 10
0.0
 20
0.0
 30
0.0
210
0.0
220
0.0
230
1.0
  2
ANSI31
 70
     0
 71
     1
 91
        1
 92
        7
 72
     0
 73
     1
 93
        4
 10
1.83941529
 20
-5.54123166
 10
1.83941529
 20
-5.53023166
 10
1.82441529
 20
-5.53023166
 10
1.82441529
 20
-5.54123166
 97
        1
330
4FA
 75
     0
 76
     2
 52
0.0
 41
0.00157481
 77
     0
 78
     1
 53
45.0
 43
0.0
 44
0.0
 45
0.00353553
 46
-0.00353553
 79
     0
 47
0.775229
 98
        1
 10
0.0
 20
0.0
  0
LINE
  5
4FC
100
AcDbEntity
  8
detail
 62
     7
  6
CONTINUOUS
370
     5
100
AcDbLine
 10
1.86691529
 20
-5.50443166
 30
0.0
 11
1.86691529
 21
-5.49851047
 31
0.0
  0
LWPOLYLINE
  5
4FD
100
AcDbEntity
  8
detail
 62
     7
  6
CONTINUOUS
370
     5
100
AcDbPolyline
 90
        3
 70
     0
 43
0.0
 10
1.82441529
 20
-5.49851047
 10
1.82441529
 20
-5.50443166
 10
1.86691529
 20
-5.50443166
  0
TEXT
  5
4FE
100
AcDbEntity
  8
detail
 62
    16
370
     5
100
AcDbText
 10
1.99295039
 20
-5.49173754
 30
0.0
 40
0.0036
  1

  7
ARIAL
 50
0.0
 41
0.89
 51
0.0
100
AcDbText
  0
TEXT
  5
4FF
100
AcDbEntity
  8
detail
 62
     7
370
    18
100
AcDbText
 10
1.88946443
 20
-5.56600896
 30
0.0
 40
0.0016
  1
Hitersturz (Beispiel) Filenit 14 oder 14S
  7
FRUTIGER_55_ROMAN
 50
0.0
 41
0.89
 51
0.0
100
AcDbText
  0
TEXT
  5
500
100
AcDbEntity
  8
detail
 62
     7
370
    18
100
AcDbText
 10
1.79252754
 20
-5.59288893
 30
0.0
 40
0.0016
  1
Rollladen ECOMONT 16+
  7
FRUTIGER_55_ROMAN
 50
0.0
 41
0.89
 51
0.0
100
AcDbText
  0
TEXT
  5
501
100
AcDbEntity
  8
detail
 62
     7
370
    18
100
AcDbText
 10
1.87552173
 20
-5.59672956
 30
0.0
 40
0.0016
  1
Untersichtsblende (Revisionsblech)
  7
FRUTIGER_55_ROMAN
 50
0.0
 41
0.89
 51
0.0
100
AcDbText
  0
TEXT
  5
502
100
AcDbEntity
  8
detail
 62
     7
370
    18
100
AcDbText
 10
1.87552173
 20
-5.59987636
 30
0.0
 40
0.0016
  1
seitlich in Lagerplatte gehalten
  7
FRUTIGER_55_ROMAN
 50
0.0
 41
0.89
 51
0.0
100
AcDbText
  0
TEXT
  5
503
100
AcDbEntity
  8
detail
 62
     7
370
    18
100
AcDbText
 10
1.79252754
 20
-5.595985
 30
0.0
 40
0.0016
  1
mit Lagerkonsole
  7
FRUTIGER_55_ROMAN
 50
0.0
 41
0.89
 51
0.0
100
AcDbText
  0
TEXT
  5
504
100
AcDbEntity
  8
detail
 62
     7
370
    18
100
AcDbText
 10
1.87552173
 20
-5.62718029
 30
0.0
 40
0.0016
  1
Führungsschiene für Insektenschutznetz
  7
FRUTIGER_55_ROMAN
 50
0.0
 41
0.89
 51
0.0
100
AcDbText
  0
TEXT
  5
505
100
AcDbEntity
  8
detail
 62
     7
370
    18
100
AcDbText
 10
1.88928896
 20
-5.66661662
 30
0.0
 40
0.0025
  1
Massangabe in mm
  7
FRUTIGER_55_ROMAN
 50
0.0
 41
0.89
 51
0.0
100
AcDbText
  0
TEXT
  5
506
100
AcDbEntity
  8
detail
 62
   160
370
    18
100
AcDbText
 10
1.80947974
 20
-5.56364471
 30
0.0
 40
0.0012
  1
Systemhöhe
  7
FRUTIGER_55_ROMAN
 50
0.0
 41
0.94
 51
0.0
100
AcDbText
  0
TEXT
  5
507
100
AcDbEntity
  8
detail
 62
   160
370
    18
100
AcDbText
 10
1.80947974
 20
-5.57190505
 30
0.0
 40
0.0012
  1
Wellenhöhe
  7
FRUTIGER_55_ROMAN
 50
0.0
 41
0.94
 51
0.0
100
AcDbText
  0
TEXT
  5
508
100
AcDbEntity
  8
detail
 62
   160
370
    18
100
AcDbText
 10
1.80947974
 20
-5.5822803
 30
0.0
 40
0.0012
  1
Führungshöhe
  7
FRUTIGER_55_ROMAN
 50
0.0
 41
0.94
 51
0.0
100
AcDbText
  0
TEXT
  5
509
100
AcDbEntity
  8
detail
 62
   160
370
    18
100
AcDbText
 10
1.88385768
 20
-5.57797471
 30
0.0
 40
0.0016
  1
Sturz Höhe
  7
FRUTIGER_55_ROMAN
 50
89.9999975
 41
0.94
 51
0.0
100
AcDbText
  0
TEXT
  5
50A
100
AcDbEntity
  8
detail
 62
   160
370
    18
100
AcDbText
 10
1.83265629
 20
-5.61238081
 30
0.0
 40
0.0016
  1
Sturz Breite
  7
FRUTIGER_55_ROMAN
 50
0.0
 41
0.94
 51
0.0
100
AcDbText
  0
TEXT
  5
50B
100
AcDbEntity
  8
detail
 62
     7
370
    18
100
AcDbText
 10
1.79252754
 20
-5.62151481
 30
0.0
 40
0.0016
  1
Führungsschiene mit
  7
FRUTIGER_55_ROMAN
 50
0.0
 41
0.89
 51
0.0
100
AcDbText
  0
TEXT
  5
50C
100
AcDbEntity
  8
detail
 62
     7
370
    18
100
AcDbText
 10
1.79252754
 20
-5.62444666
 30
0.0
 40
0.0016
  1
Bohrungen
  7
FRUTIGER_55_ROMAN
 50
0.0
 41
0.89
 51
0.0
100
AcDbText
  0
TEXT
  5
50D
100
AcDbEntity
  8
detail
 62
     7
370
    18
100
AcDbText
 10
1.79252754
 20
-5.54849439
 30
0.0
 40
0.0016
  1
Vordersturz (Beispiel)
  7
FRUTIGER_55_ROMAN
 50
0.0
 41
0.89
 51
0.0
100
AcDbText
  0
TEXT
  5
50E
100
AcDbEntity
  8
detail
 62
     7
370
    18
100
AcDbText
 10
1.79252754
 20
-5.55187506
 30
0.0
 40
0.0016
  1
Stahlton 3 oder 3S
  7
FRUTIGER_55_ROMAN
 50
0.0
 41
0.89
 51
0.0
100
AcDbText
  0
INSERT
  5
50F
100
AcDbEntity
  8
detail
 62
     0
370
    -3
100
AcDbBlockReference
  2
*D1
 10
0.0
 20
0.0
 30
0.0
  0
INSERT
  5
510
100
AcDbEntity
  8
detail
 62
     0
370
    -3
100
AcDbBlockReference
  2
*D2
 10
0.0
 20
0.0
 30
0.0
  0
INSERT
  5
511
100
AcDbEntity
  8
detail
 62
     0
370
     9
100
AcDbBlockReference
  2
*D3
 10
0.0
 20
0.0
 30
0.0
  0
INSERT
  5
512
100
AcDbEntity
  8
detail
 62
     0
370
    -3
100
AcDbBlockReference
  2
*D4
 10
0.0
 20
0.0
 30
0.0
  0
INSERT
  5
513
100
AcDbEntity
  8
detail
 62
     0
370
    -3
100
AcDbBlockReference
  2
*D5
 10
0.0
 20
0.0
 30
0.0
  0
INSERT
  5
514
100
AcDbEntity
  8
detail
 62
     0
370
    -3
100
AcDbBlockReference
  2
*D6
 10
0.0
 20
0.0
 30
0.0
  0
INSERT
  5
515
100
AcDbEntity
  8
detail
 62
     0
370
    -3
100
AcDbBlockReference
  2
*D7
 10
0.0
 20
0.0
 30
0.0
  0
INSERT
  5
516
100
AcDbEntity
  8
detail
 62
     0
370
    -3
100
AcDbBlockReference
  2
*D8
 10
0.0
 20
0.0
 30
0.0
  0
INSERT
  5
517
100
AcDbEntity
  8
detail
 62
     0
370
    -3
100
AcDbBlockReference
  2
*D9
 10
0.0
 20
0.0
 30
0.0
  0
ENDSEC
  0
SECTION
  2
OBJECTS
  0
DICTIONARY
  5
1
100
AcDbDictionary
  3
ACAD_GROUP
350
2
  3
ACAD_MLINESTYLE
350
3
  0
DICTIONARY
  5
2
102
{CDWK_REACTORS
330
1
102
}
100
AcDbDictionary
  0
DICTIONARY
  5
3
102
{CDWK_REACTORS
330
1
102
}
100
AcDbDictionary
  3
STANDARD
350
4
  0
MLINESTYLE
  5
4
102
{CDWK_REACTORS
330
3
102
}
100
AcDbMlineStyle
  2
STANDARD
 70
     0
  3

 62
     0
 51
90.0
 52
90.0
 71
     2
 49
0.5
 62
   256
  6
BYLAYER
 49
-0.5
 62
   256
  6
BYLAYER
  0
ENDSEC
  0
EOF
